  0
SECTION
  2
HEADER
  9
$ACADVER
  1
AC1015
  9
$DWGCODEPAGE
  3
ansi_1252
  9
$INSBASE
 10
0
 20
0
 30
0
  9
$EXTMIN
 10
0.20589521401181132
 20
0.19999999999988929
 30
0
  9
$EXTMAX
 10
505.0453666590941
 20
46.972120407664065
 30
0
  9
$LIMMIN
 10
0
 20
0
  9
$LIMMAX
 10
12
 20
9
  9
$ORTHOMODE
 70
0
  9
$REGENMODE
 70
1
  9
$FILLMODE
 70
1
  9
$QTEXTMODE
 70
0
  9
$MIRRTEXT
 70
1
  9
$LTSCALE
 40
1
  9
$ATTMODE
 70
1
  9
$TEXTSIZE
 40
0.2
  9
$TRACEWID
 40
0.05
  9
$TEXTSTYLE
  7
Standard
  9
$CLAYER
  8
0
  9
$CELTYPE
  6
ByLayer
  9
$CECOLOR
 62
256
  9
$CELTSCALE
 40
1
  9
$DISPSILH
 70
0
  9
$DIMSCALE
 40
1
  9
$DIMASZ
 40
0.18
  9
$DIMEXO
 40
0.0625
  9
$DIMDLI
 40
0.38
  9
$DIMRND
 40
0
  9
$DIMDLE
 40
0
  9
$DIMEXE
 40
0.18
  9
$DIMTP
 40
0
  9
$DIMTM
 40
0
  9
$DIMTXT
 40
0.18
  9
$DIMCEN
 40
0.09
  9
$DIMTSZ
 40
0
  9
$DIMTOL
 70
0
  9
$DIMLIM
 70
0
  9
$DIMTIH
 70
1
  9
$DIMTOH
 70
1
  9
$DIMSE1
 70
0
  9
$DIMSE2
 70
0
  9
$DIMTAD
 70
0
  9
$DIMZIN
 70
0
  9
$DIMBLK
  1

  9
$DIMASO
 70
1
  9
$DIMSHO
 70
1
  9
$DIMPOST
  1

  9
$DIMAPOST
  1

  9
$DIMALT
 70
0
  9
$DIMALTD
 70
2
  9
$DIMALTF
 40
1
  9
$DIMLFAC
 40
1
  9
$DIMTOFL
 70
0
  9
$DIMTVP
 40
0
  9
$DIMTIX
 70
0
  9
$DIMSOXD
 70
0
  9
$DIMSAH
 70
0
  9
$DIMBLK1
  1

  9
$DIMBLK2
  1

  9
$DIMSTYLE
  2
Standard
  9
$DIMCLRD
 70
0
  9
$DIMCLRE
 70
0
  9
$DIMCLRT
 70
0
  9
$DIMTFAC
 40
1
  9
$DIMGAP
 40
0.09
  9
$DIMJUST
 70
0
  9
$DIMSD1
 70
0
  9
$DIMSD2
 70
0
  9
$DIMTOLJ
 70
1
  9
$DIMTZIN
 70
0
  9
$DIMALTZ
 70
0
  9
$DIMALTTZ
 70
0
  9
$DIMUPT
 70
0
  9
$DIMDEC
 70
4
  9
$DIMTDEC
 70
4
  9
$DIMALTU
 70
2
  9
$DIMALTTD
 70
0
  9
$DIMTXSTY
  7
Standard
  9
$DIMAUNIT
 70
0
  9
$DIMADEC
 70
0
  9
$DIMALTRND
 40
0
  9
$DIMAZIN
 70
0
  9
$DIMDSEP
 70
46
  9
$DIMATFIT
 70
0
  9
$DIMFRAC
 70
0
  9
$DIMLDRBLK
  1

  9
$DIMLUNIT
 70
2
  9
$DIMLWD
 70
-2
  9
$DIMLWE
 70
-2
  9
$LUNITS
 70
2
  9
$LUPREC
 70
4
  9
$SKETCHINC
 40
0.1
  9
$FILLETRAD
 40
0
  9
$AUNITS
 70
0
  9
$AUPREC
 70
0
  9
$MENU
  1
.
  9
$ELEVATION
 40
0
  9
$PELEVATION
 40
0
  9
$THICKNESS
 40
0
  9
$LIMCHECK
 70
0
  9
$CHAMFERA
 40
0.5
  9
$CHAMFERB
 40
0.5
  9
$CHAMFERC
 40
0
  9
$CHAMFERD
 40
0
  9
$SKPOLY
 70
0
  9
$TDCREATE
 40
2457109.8913323381
  9
$TDUCREATE
 40
2457109.8913323381
  9
$TDUPDATE
 40
2457109.8913323381
  9
$TDUUPDATE
 40
2457109.8913323381
  9
$TDINDWG
 40
1.1574074074074074E-08
  9
$TDUSRTIMER
 40
1.1574074074074074E-08
  9
$USRTIMER
 70
1
  9
$ANGBASE
 50
0
  9
$ANGDIR
 70
1
  9
$PDMODE
 70
0
  9
$PDSIZE
 40
0
  9
$PLINEWID
 40
0
  9
$SPLFRAME
 70
0
  9
$SPLINETYPE
 70
6
  9
$SPLINESEGS
 70
8
  9
$HANDSEED
  5
68F
  9
$SURFTAB1
 70
6
  9
$SURFTAB2
 70
6
  9
$SURFTYPE
 70
6
  9
$SURFU
 70
6
  9
$SURFV
 70
6
  9
$UCSORG
 10
0
 20
0
 30
0
  9
$UCSXDIR
 10
1
 20
0
 30
0
  9
$UCSYDIR
 10
0
 20
1
 30
0
  9
$UCSORTHOREF
  2

  9
$UCSORTHOVIEW
 70
0
  9
$UCSORGTOP
 10
0
 20
0
 30
0
  9
$UCSORGBOTTOM
 10
0
 20
0
 30
0
  9
$UCSORGLEFT
 10
0
 20
0
 30
0
  9
$UCSORGRIGHT
 10
0
 20
0
 30
0
  9
$UCSORGFRONT
 10
0
 20
0
 30
0
  9
$UCSORGBACK
 10
0
 20
0
 30
0
  9
$PUCSORG
 10
0
 20
0
 30
0
  9
$PUCSXDIR
 10
1
 20
0
 30
0
  9
$PUCSYDIR
 10
0
 20
1
 30
0
  9
$PUCSORTHOREF
  2

  9
$PUCSORTHOVIEW
 70
0
  9
$PUCSORGTOP
 10
0
 20
0
 30
0
  9
$PUCSORGBOTTOM
 10
0
 20
0
 30
0
  9
$PUCSORGLEFT
 10
0
 20
0
 30
0
  9
$PUCSORGRIGHT
 10
0
 20
0
 30
0
  9
$PUCSORGFRONT
 10
0
 20
0
 30
0
  9
$PUCSORGBACK
 10
0
 20
0
 30
0
  9
$USERI1
 70
0
  9
$USERI2
 70
0
  9
$USERI3
 70
0
  9
$USERI4
 70
0
  9
$USERI5
 70
0
  9
$USERR1
 40
0
  9
$USERR2
 40
0
  9
$USERR3
 40
0
  9
$USERR4
 40
0
  9
$USERR5
 40
0
  9
$WORLDVIEW
 70
1
  9
$SHADEDGE
 70
3
  9
$SHADEDIF
 70
70
  9
$TILEMODE
 70
1
  9
$MAXACTVP
 70
48
  9
$PINSBASE
 10
0
 20
0
 30
0
  9
$PLIMCHECK
 70
0
  9
$PEXTMIN
 10
1E+20
 20
1E+20
 30
1E+20
  9
$PEXTMAX
 10
-1E+20
 20
-1E+20
 30
-1E+20
  9
$PLIMMAX
 10
0
 20
0
  9
$PLIMMIN
 10
0
 20
0
  9
$UNITMODE
 70
0
  9
$VISRETAIN
 70
1
  9
$PLINEGEN
 70
1
  9
$PSLTSCALE
 70
1
  9
$TREEDEPTH
 70
3020
  9
$CMLSTYLE
  2
STANDARD
  9
$CMLJUST
 70
0
  9
$CMLSCALE
 40
1
  9
$PROXYGRAPHICS
 70
1
  9
$MEASUREMENT
 70
0
  9
$CELWEIGHT
370
-1
  9
$ENDCAPS
280
0
  9
$JOINSTYLE
280
0
  9
$LWDISPLAY
290
1
  9
$INSUNITS
 70
1
  9
$HYPERLINKBASE
  1

  9
$XEDIT
290
1
  9
$CEPSNTYPE
380
0
  9
$PSTYLEMODE
290
0
  9
$FINGERPRINTGUID
  2

  9
$VERSIONGUID
  2

  9
$EXTNAMES
290
1
  9
$PSVPSCALE
 40
0
  9
$CSHADOW
280
0
  9
$SHADOWPLANELOCATION
 40
0
  0
ENDSEC
  0
SECTION
  2
CLASSES
  0
CLASS
  1
RASTERVARIABLES
  2
AcDbRasterVariables
  3
ISM
 90
0
280
0
281
0
  0
CLASS
  1
IMAGEDEF
  2
AcDbRasterImageDef
  3
ISM
 90
0
280
0
281
0
  0
CLASS
  1
IMAGEDEF_REACTOR
  2
AcDbRasterImageDefReactor
  3
ISM
 90
1
280
0
281
0
  0
CLASS
  1
IMAGE
  2
AcDbRasterImage
  3
ISM
 90
127
280
0
281
1
  0
ENDSEC
  0
SECTION
  2
TABLES
  0
TABLE
  2
VPORT
  5
8
330
0
100
AcDbSymbolTable
 70
1
  0
VPORT
  5
681
100
AcDbSymbolTableRecord
100
AcDbViewportTableRecord
  2
*Active
 70
64
 10
0
 20
0
 11
1
 21
1
 12
23.5919554178439
 22
23.586060203831977
 13
0
 23
0
 14
1
 24
1
 15
0
 25
0
 16
0
 26
0
 36
1
 17
0
 27
0
 37
0
 40
47.707562815817461
 41
1
 42
50
 43
0
 44
0
 50
0
 51
0
 71
0
 72
1000
 73
0
 74
1
 75
0
 76
0
 77
0
 78
0
281
0
 65
1
110
0
120
0
130
0
111
1
121
0
131
0
112
0
122
1
132
0
 79
0
146
0
  0
ENDTAB
  0
TABLE
  2
LTYPE
  5
5
100
AcDbSymbolTable
 70
3
  0
LTYPE
  5
16
100
AcDbSymbolTableRecord
100
AcDbLinetypeTableRecord
  2
Continuous
  3
Solid line
 70
64
 72
65
 73
0
 40
0
  0
LTYPE
  5
14
100
AcDbSymbolTableRecord
100
AcDbLinetypeTableRecord
  2
ByBlock
  3

 70
64
 72
65
 73
0
 40
0
  0
LTYPE
  5
15
100
AcDbSymbolTableRecord
100
AcDbLinetypeTableRecord
  2
ByLayer
  3

 70
64
 72
65
 73
0
 40
0
  0
ENDTAB
  0
TABLE
  2
LAYER
  5
2
100
AcDbSymbolTable
 70
2
  0
LAYER
  5
10
100
AcDbSymbolTableRecord
100
AcDbLayerTableRecord
 70
64
  2
0
 62
7
  6
Continuous
370
-3
390
F
  0
LAYER
  5
27
100
AcDbSymbolTableRecord
100
AcDbLayerTableRecord
 70
64
  2
Plywoodparts
 62
7
  6
Continuous
370
-3
390
F
  0
ENDTAB
  0
TABLE
  2
STYLE
  5
3
100
AcDbSymbolTable
 70
1
  0
STYLE
  5
11
100
AcDbSymbolTableRecord
100
AcDbTextStyleTableRecord
  2
Standard
 70
64
 40
0
 41
1
 50
0
 71
0
 42
0.2
  3
txt.shx
  0
ENDTAB
  0
TABLE
  2
VIEW
  5
6
100
AcDbSymbolTable
 70
0
  0
ENDTAB
  0
TABLE
  2
UCS
  5
7
100
AcDbSymbolTable
 70
0
  0
ENDTAB
  0
TABLE
  2
APPID
  5
9
330
0
100
AcDbSymbolTable
 70
2
  0
APPID
  5
12
100
AcDbSymbolTableRecord
100
AcDbRegAppTableRecord
  2
ACAD
 70
64
  0
APPID
  5
68D
100
AcDbSymbolTableRecord
100
AcDbRegAppTableRecord
  2
ACAD_MLEADERVER
 70
64
  0
ENDTAB
  0
TABLE
  2
DIMSTYLE
  5
A
330
0
100
AcDbSymbolTable
 70
1
100
AcDbDimStyleTable
 71
0
  0
DIMSTYLE
105
680
100
AcDbSymbolTableRecord
100
AcDbDimStyleTableRecord
  2
Standard
 70
64
  3

  4

 40
1
 41
0.18
 42
0.0625
 43
0.38
 44
0.18
 45
0
 46
0
 47
0
 48
0
140
0.18
141
0.09
142
0
143
1
144
1
145
0
146
1
147
0.09
148
0
 71
0
 72
0
 73
1
 74
1
 75
0
 76
0
 77
0
 78
0
 79
0
170
0
171
2
172
0
173
0
174
0
175
0
179
0
271
4
272
4
273
2
274
0
275
0
276
0
277
2
278
46
279
0
280
0
281
0
282
0
283
1
284
0
285
0
286
0
288
0
289
0
340
11
371
-2
372
-2
  0
ENDTAB
  0
TABLE
  2
BLOCK_RECORD
  5
1
330
0
100
AcDbSymbolTable
 70
3
  0
BLOCK_RECORD
  5
28
330
1
100
AcDbSymbolTableRecord
100
AcDbBlockTableRecord
  2
59
  0
BLOCK_RECORD
  5
33
330
1
100
AcDbSymbolTableRecord
100
AcDbBlockTableRecord
  2
45
  0
BLOCK_RECORD
  5
76
330
1
100
AcDbSymbolTableRecord
100
AcDbBlockTableRecord
  2
3
  0
BLOCK_RECORD
  5
B3
330
1
100
AcDbSymbolTableRecord
100
AcDbBlockTableRecord
  2
53
  0
BLOCK_RECORD
  5
EB
330
1
100
AcDbSymbolTableRecord
100
AcDbBlockTableRecord
  2
32
  0
BLOCK_RECORD
  5
F0
330
1
100
AcDbSymbolTableRecord
100
AcDbBlockTableRecord
  2
47
  0
BLOCK_RECORD
  5
12F
330
1
100
AcDbSymbolTableRecord
100
AcDbBlockTableRecord
  2
39
  0
BLOCK_RECORD
  5
146
330
1
100
AcDbSymbolTableRecord
100
AcDbBlockTableRecord
  2
2
  0
BLOCK_RECORD
  5
14E
330
1
100
AcDbSymbolTableRecord
100
AcDbBlockTableRecord
  2
54
  0
BLOCK_RECORD
  5
169
330
1
100
AcDbSymbolTableRecord
100
AcDbBlockTableRecord
  2
17
  0
BLOCK_RECORD
  5
175
330
1
100
AcDbSymbolTableRecord
100
AcDbBlockTableRecord
  2
38
  0
BLOCK_RECORD
  5
18C
330
1
100
AcDbSymbolTableRecord
100
AcDbBlockTableRecord
  2
41
  0
BLOCK_RECORD
  5
1B1
330
1
100
AcDbSymbolTableRecord
100
AcDbBlockTableRecord
  2
57
  0
BLOCK_RECORD
  5
1BC
330
1
100
AcDbSymbolTableRecord
100
AcDbBlockTableRecord
  2
30
  0
BLOCK_RECORD
  5
1CC
330
1
100
AcDbSymbolTableRecord
100
AcDbBlockTableRecord
  2
34
  0
BLOCK_RECORD
  5
1D3
330
1
100
AcDbSymbolTableRecord
100
AcDbBlockTableRecord
  2
37
  0
BLOCK_RECORD
  5
1DA
330
1
100
AcDbSymbolTableRecord
100
AcDbBlockTableRecord
  2
56
  0
BLOCK_RECORD
  5
1E1
330
1
100
AcDbSymbolTableRecord
100
AcDbBlockTableRecord
  2
19
  0
BLOCK_RECORD
  5
1EA
330
1
100
AcDbSymbolTableRecord
100
AcDbBlockTableRecord
  2
55
  0
BLOCK_RECORD
  5
1F1
330
1
100
AcDbSymbolTableRecord
100
AcDbBlockTableRecord
  2
43
  0
BLOCK_RECORD
  5
1FC
330
1
100
AcDbSymbolTableRecord
100
AcDbBlockTableRecord
  2
20
  0
BLOCK_RECORD
  5
205
330
1
100
AcDbSymbolTableRecord
100
AcDbBlockTableRecord
  2
6
  0
BLOCK_RECORD
  5
20D
330
1
100
AcDbSymbolTableRecord
100
AcDbBlockTableRecord
  2
35
  0
BLOCK_RECORD
  5
214
330
1
100
AcDbSymbolTableRecord
100
AcDbBlockTableRecord
  2
36
  0
BLOCK_RECORD
  5
21B
330
1
100
AcDbSymbolTableRecord
100
AcDbBlockTableRecord
  2
51
  0
BLOCK_RECORD
  5
258
330
1
100
AcDbSymbolTableRecord
100
AcDbBlockTableRecord
  2
49
  0
BLOCK_RECORD
  5
289
330
1
100
AcDbSymbolTableRecord
100
AcDbBlockTableRecord
  2
24
  0
BLOCK_RECORD
  5
2A9
330
1
100
AcDbSymbolTableRecord
100
AcDbBlockTableRecord
  2
5
  0
BLOCK_RECORD
  5
2DB
330
1
100
AcDbSymbolTableRecord
100
AcDbBlockTableRecord
  2
26
  0
BLOCK_RECORD
  5
2F9
330
1
100
AcDbSymbolTableRecord
100
AcDbBlockTableRecord
  2
21
  0
BLOCK_RECORD
  5
30A
330
1
100
AcDbSymbolTableRecord
100
AcDbBlockTableRecord
  2
7
  0
BLOCK_RECORD
  5
32D
330
1
100
AcDbSymbolTableRecord
100
AcDbBlockTableRecord
  2
40
  0
BLOCK_RECORD
  5
352
330
1
100
AcDbSymbolTableRecord
100
AcDbBlockTableRecord
  2
9
  0
BLOCK_RECORD
  5
361
330
1
100
AcDbSymbolTableRecord
100
AcDbBlockTableRecord
  2
12
  0
BLOCK_RECORD
  5
368
330
1
100
AcDbSymbolTableRecord
100
AcDbBlockTableRecord
  2
11
  0
BLOCK_RECORD
  5
373
330
1
100
AcDbSymbolTableRecord
100
AcDbBlockTableRecord
  2
29
  0
BLOCK_RECORD
  5
383
330
1
100
AcDbSymbolTableRecord
100
AcDbBlockTableRecord
  2
8
  0
BLOCK_RECORD
  5
398
330
1
100
AcDbSymbolTableRecord
100
AcDbBlockTableRecord
  2
28
  0
BLOCK_RECORD
  5
3A7
330
1
100
AcDbSymbolTableRecord
100
AcDbBlockTableRecord
  2
31
  0
BLOCK_RECORD
  5
3B7
330
1
100
AcDbSymbolTableRecord
100
AcDbBlockTableRecord
  2
4
  0
BLOCK_RECORD
  5
3C4
330
1
100
AcDbSymbolTableRecord
100
AcDbBlockTableRecord
  2
22
  0
BLOCK_RECORD
  5
3CD
330
1
100
AcDbSymbolTableRecord
100
AcDbBlockTableRecord
  2
13
  0
BLOCK_RECORD
  5
3DF
330
1
100
AcDbSymbolTableRecord
100
AcDbBlockTableRecord
  2
15
  0
BLOCK_RECORD
  5
3F6
330
1
100
AcDbSymbolTableRecord
100
AcDbBlockTableRecord
  2
14
  0
BLOCK_RECORD
  5
404
330
1
100
AcDbSymbolTableRecord
100
AcDbBlockTableRecord
  2
33
  0
BLOCK_RECORD
  5
40E
330
1
100
AcDbSymbolTableRecord
100
AcDbBlockTableRecord
  2
42
  0
BLOCK_RECORD
  5
41A
330
1
100
AcDbSymbolTableRecord
100
AcDbBlockTableRecord
  2
48
  0
BLOCK_RECORD
  5
43D
330
1
100
AcDbSymbolTableRecord
100
AcDbBlockTableRecord
  2
52
  0
BLOCK_RECORD
  5
45C
330
1
100
AcDbSymbolTableRecord
100
AcDbBlockTableRecord
  2
27
  0
BLOCK_RECORD
  5
477
330
1
100
AcDbSymbolTableRecord
100
AcDbBlockTableRecord
  2
1
  0
BLOCK_RECORD
  5
4B2
330
1
100
AcDbSymbolTableRecord
100
AcDbBlockTableRecord
  2
10
  0
BLOCK_RECORD
  5
4BD
330
1
100
AcDbSymbolTableRecord
100
AcDbBlockTableRecord
  2
16
  0
BLOCK_RECORD
  5
4CD
330
1
100
AcDbSymbolTableRecord
100
AcDbBlockTableRecord
  2
25
  0
BLOCK_RECORD
  5
4E9
330
1
100
AcDbSymbolTableRecord
100
AcDbBlockTableRecord
  2
46
  0
BLOCK_RECORD
  5
517
330
1
100
AcDbSymbolTableRecord
100
AcDbBlockTableRecord
  2
50
  0
BLOCK_RECORD
  5
546
330
1
100
AcDbSymbolTableRecord
100
AcDbBlockTableRecord
  2
23
  0
BLOCK_RECORD
  5
557
330
1
100
AcDbSymbolTableRecord
100
AcDbBlockTableRecord
  2
18
  0
BLOCK_RECORD
  5
564
330
1
100
AcDbSymbolTableRecord
100
AcDbBlockTableRecord
  2
44
  0
BLOCK_RECORD
  5
1F
330
1
100
AcDbSymbolTableRecord
100
AcDbBlockTableRecord
  2
*Model_Space
340
22
  0
BLOCK_RECORD
  5
67D
330
1
100
AcDbSymbolTableRecord
100
AcDbBlockTableRecord
  2
*Paper_Space
340
1E
  0
ENDTAB
  0
ENDSEC
  0
SECTION
  2
BLOCKS
  0
BLOCK
  5
29
330
28
100
AcDbEntity
  8
0
100
AcDbBlockBegin
  2
59
 70
64
 10
0
 20
0
 30
1
  3
59
  0
LINE
  5
2A
330
28
100
AcDbEntity
  8
Plywoodparts
 62
7
100
AcDbLine
 10
0
 20
0
 30
0
 11
-12.028656443854322
 21
-0.018087830653550505
 31
0
  0
LINE
  5
2B
330
28
100
AcDbEntity
  8
Plywoodparts
 62
7
100
AcDbLine
 10
-12.028656443854322
 20
-0.018087830653550505
 30
0
 11
-24.05731237403543
 21
-0.035533880645670729
 31
0
  0
LINE
  5
2C
330
28
100
AcDbEntity
  8
Plywoodparts
 62
7
100
AcDbLine
 10
-24.05731237403543
 20
-0.035533880645670729
 30
0
 11
-24.164824346726803
 21
-1.7289521030513377
 31
0
  0
ARC
  5
2D
330
28
100
AcDbEntity
  8
Plywoodparts
 62
7
100
AcDbCircle
 10
-26.220977558148647
 20
83.535953275157055
 30
0
 40
85.289693721947842
100
AcDbArc
 50
271.38141328034044
 51
275.87859633645593
  0
ARC
  5
2E
330
28
100
AcDbEntity
  8
Plywoodparts
 62
7
100
AcDbCircle
 10
-11.862648444520833
 20
-64.608586675886627
 30
0
 40
63.552605657574119
100
AcDbArc
 50
90.14828570101605
 51
95.075936577743107
  0
ARC
  5
2F
330
28
100
AcDbEntity
  8
Plywoodparts
 62
7
100
AcDbCircle
 10
-12.029613044658648
 20
-65.173197513782867
 30
0
 40
64.1170037021159
100
AcDbArc
 50
85.122261216601643
 51
89.9977785182257
  0
ARC
  5
30
330
28
100
AcDbEntity
  8
Plywoodparts
 62
7
100
AcDbCircle
 10
1.9332167177670607
 20
83.909283985413907
 30
0
 40
85.621737473610139
100
AcDbArc
 50
264.29526297373553
 51
268.78154325448037
  0
LINE
  5
31
330
28
100
AcDbEntity
  8
Plywoodparts
 62
7
100
AcDbLine
 10
0.11251506894881645
 20
-1.6930931632716568
 30
0
 11
0
 21
0
 31
0
  0
ENDBLK
  5
32
330
28
100
AcDbEntity
  8
0
100
AcDbBlockEnd
  0
BLOCK
  5
34
330
33
100
AcDbEntity
  8
0
100
AcDbBlockBegin
  2
45
 70
64
 10
0
 20
0
 30
1
  3
45
  0
LINE
  5
35
330
33
100
AcDbEntity
  8
Plywoodparts
 62
7
100
AcDbLine
 10
0
 20
0
 30
0
 11
0.00032601083614032739
 21
-0.389551098920478
 31
0
  0
ARC
  5
36
330
33
100
AcDbEntity
  8
Plywoodparts
 62
7
100
AcDbCircle
 10
661.53414678613819
 20
0.34557021651102887
 30
0
 40
661.534229222433
100
AcDbArc
 50
180.0636692035155
 51
181.0291174771443
  0
ARC
  5
37
330
33
100
AcDbEntity
  8
Plywoodparts
 62
7
100
AcDbCircle
 10
549.34800145808322
 20
-1.361343482450819
 30
0
 40
549.33560931933073
100
AcDbArc
 50
181.0612714830379
 51
182.2239067474504
  0
ARC
  5
38
330
33
100
AcDbEntity
  8
Plywoodparts
 62
7
100
AcDbCircle
 10
464.54237250454776
 20
-4.3793216404665571
 30
0
 40
464.47682455748821
100
AcDbArc
 50
182.2578487785413
 51
183.6328942723548
  0
ARC
  5
39
330
33
100
AcDbEntity
  8
Plywoodparts
 62
7
100
AcDbCircle
 10
396.7092272255241
 20
-8.4222856088783384
 30
0
 40
396.52390007745271
100
AcDbArc
 50
183.67094058503292
 51
185.28162991169771
  0
ARC
  5
3A
330
33
100
AcDbEntity
  8
Plywoodparts
 62
7
100
AcDbCircle
 10
376.14776998564889
 20
-10.114451543476408
 30
0
 40
375.89403264758346
100
AcDbArc
 50
185.31329294841083
 51
188.71147577837436
  0
ARC
  5
3B
330
33
100
AcDbEntity
  8
Plywoodparts
 62
7
100
AcDbCircle
 10
384.6173949675694
 20
-8.8973451589393875
 30
0
 40
384.45029814582949
100
AcDbArc
 50
188.69959279088465
 51
190.36086815497569
  0
ARC
  5
3C
330
33
100
AcDbEntity
  8
Plywoodparts
 62
7
100
AcDbCircle
 10
384.97250928641273
 20
-8.8557241810890019
 30
0
 40
384.80710826475905
100
AcDbArc
 50
190.35745488468814
 51
192.01718906896448
  0
LINE
  5
3D
330
33
100
AcDbEntity
  8
Plywoodparts
 62
7
100
AcDbLine
 10
8.5983787670344167
 20
-88.9745387433874
 30
0
 11
8.59837876703594
 21
-90.614317096708646
 31
0
  0
LINE
  5
3E
330
33
100
AcDbEntity
  8
Plywoodparts
 62
7
100
AcDbLine
 10
8.59837876703594
 20
-90.614317096708646
 30
0
 11
8.9549289783272865
 21
-90.614317096708646
 31
0
  0
LINE
  5
3F
330
33
100
AcDbEntity
  8
Plywoodparts
 62
7
100
AcDbLine
 10
8.9549289783272865
 20
-90.614317096708646
 30
0
 11
8.9549289783272865
 21
-89.348372193295276
 31
0
  0
LINE
  5
40
330
33
100
AcDbEntity
  8
Plywoodparts
 62
7
100
AcDbLine
 10
8.9549289783272865
 20
-89.348372193295276
 30
0
 11
9.191149450768231
 21
-89.348372193295276
 31
0
  0
LINE
  5
41
330
33
100
AcDbEntity
  8
Plywoodparts
 62
7
100
AcDbLine
 10
9.191149450768231
 20
-89.348372193295276
 30
0
 11
9.191149450768231
 21
-90.614317096708646
 31
0
  0
LINE
  5
42
330
33
100
AcDbEntity
  8
Plywoodparts
 62
7
100
AcDbLine
 10
9.191149450768231
 20
-90.614317096708646
 30
0
 11
9.5476996620595624
 21
-90.614317096708646
 31
0
  0
LINE
  5
43
330
33
100
AcDbEntity
  8
Plywoodparts
 62
7
100
AcDbLine
 10
9.5476996620595624
 20
-90.614317096708646
 30
0
 11
9.5476996620595624
 21
-88.974538743385835
 31
0
  0
ARC
  5
44
330
33
100
AcDbEntity
  8
Plywoodparts
 62
7
100
AcDbCircle
 10
-363.78119320026406
 20
-9.4580009832630161
 30
0
 40
381.70321196338585
100
AcDbArc
 50
347.97606277119468
 51
349.64929438379227
  0
ARC
  5
45
330
33
100
AcDbEntity
  8
Plywoodparts
 62
7
100
AcDbCircle
 10
-368.02599614497115
 20
-8.6363337972740162
 30
0
 40
386.02657074385075
100
AcDbArc
 50
349.64252328788956
 51
351.29701458120923
  0
ARC
  5
46
330
33
100
AcDbEntity
  8
Plywoodparts
 62
7
100
AcDbCircle
 10
-360.60760327571677
 20
-9.7939264198637748
 30
0
 40
378.51843581455194
100
AcDbArc
 50
351.30030984782536
 51
354.67492507492091
  0
ARC
  5
47
330
33
100
AcDbEntity
  8
Plywoodparts
 62
7
100
AcDbCircle
 10
-363.67094936732508
 20
-9.58809577756102
 30
0
 40
381.58767169058586
100
AcDbArc
 50
354.68684040681438
 51
356.36058025272774
  0
ARC
  5
48
330
33
100
AcDbEntity
  8
Plywoodparts
 62
7
100
AcDbCircle
 10
-422.10290510533804
 20
-5.6292651164165539
 30
0
 40
440.15314892429524
100
AcDbArc
 50
356.32911072136039
 51
357.7801477360552
  0
ARC
  5
49
330
33
100
AcDbEntity
  8
Plywoodparts
 62
7
100
AcDbCircle
 10
-500.89871545126721
 20
-2.2303338408488496
 30
0
 40
519.02159592486612
100
AcDbArc
 50
357.74213973685056
 51
358.97268250765853
  0
ARC
  5
4A
330
33
100
AcDbEntity
  8
Plywoodparts
 62
7
100
AcDbCircle
 10
-594.10964017042465
 20
-0.19604905273701945
 30
0
 40
612.25411836396847
100
AcDbArc
 50
358.93873399606747
 51
359.76781229006434
  0
LINE
  5
4B
330
33
100
AcDbEntity
  8
Plywoodparts
 62
7
100
AcDbLine
 10
18.13945089916491
 20
-2.677165354103149
 30
0
 11
17.718752744870585
 21
-2.6771653543307079
 31
0
  0
ARC
  5
4C
330
33
100
AcDbEntity
  8
Plywoodparts
 62
7
100
AcDbCircle
 10
17.718752744870155
 20
-2.5040114089275503
 30
0
 40
0.17315394540330117
100
AcDbArc
 50
194.41542716934077
 51
270.00000000014222
  0
LINE
  5
4D
330
33
100
AcDbEntity
  8
Plywoodparts
 62
7
100
AcDbLine
 10
17.551050349705118
 20
-2.5471182003255959
 30
0
 11
16.922157742425703
 21
-0.10047828290157357
 31
0
  0
ARC
  5
4E
330
33
100
AcDbEntity
  8
Plywoodparts
 62
7
100
AcDbCircle
 10
16.801078763218776
 20
-0.12748871358860162
 30
0
 40
0.12405515939165079
100
AcDbArc
 50
12.575692942284812
 51
167.42430705715637
  0
LINE
  5
4F
330
33
100
AcDbEntity
  8
Plywoodparts
 62
7
100
AcDbLine
 10
16.679999784012118
 20
-0.10047828290039411
 30
0
 11
16.051107176732792
 21
-2.547118200322839
 31
0
  0
ARC
  5
50
330
33
100
AcDbEntity
  8
Plywoodparts
 62
7
100
AcDbCircle
 10
15.891897639846214
 20
-2.5103261787984334
 30
0
 40
0.16340541448648779
100
AcDbArc
 50
193.01216397956216
 51
346.98783602085905
  0
LINE
  5
51
330
33
100
AcDbEntity
  8
Plywoodparts
 62
7
100
AcDbLine
 10
15.732688102959866
 20
-2.5471182003240185
 30
0
 11
15.103795495681617
 21
-0.1004782829015739
 31
0
  0
ARC
  5
52
330
33
100
AcDbEntity
  8
Plywoodparts
 62
7
100
AcDbCircle
 10
14.982716516473651
 20
-0.12748871357717642
 30
0
 40
0.12405515939022047
100
AcDbArc
 50
12.575692937030127
 51
167.42430706241285
  0
LINE
  5
53
330
33
100
AcDbEntity
  8
Plywoodparts
 62
7
100
AcDbLine
 10
14.861637537265938
 20
-0.10047828290039444
 30
0
 11
14.232744929984751
 21
-2.5471182003228394
 31
0
  0
ARC
  5
54
330
33
100
AcDbEntity
  8
Plywoodparts
 62
7
100
AcDbCircle
 10
14.073535393099085
 20
-2.510326178800395
 30
0
 40
0.163405414485113
100
AcDbArc
 50
193.01216397896428
 51
346.98783602145693
  0
LINE
  5
55
330
33
100
AcDbEntity
  8
Plywoodparts
 62
7
100
AcDbLine
 10
13.914325856213651
 20
-2.5471182003240189
 30
0
 11
13.285433248933575
 21
-0.10047828290157423
 31
0
  0
ARC
  5
56
330
33
100
AcDbEntity
  8
Plywoodparts
 62
7
100
AcDbCircle
 10
13.164354269726541
 20
-0.12748871356575123
 30
0
 40
0.12405515938680944
100
AcDbArc
 50
12.575692931973364
 51
167.42430706747317
  0
LINE
  5
57
330
33
100
AcDbEntity
  8
Plywoodparts
 62
7
100
AcDbLine
 10
13.043275290519723
 20
-0.10047828290039478
 30
0
 11
12.414382683240664
 21
-2.54711820032284
 31
0
  0
ARC
  5
58
330
33
100
AcDbEntity
  8
Plywoodparts
 62
7
100
AcDbCircle
 10
12.255173146353943
 20
-2.5103261788185143
 30
0
 40
0.16340541448210669
100
AcDbArc
 50
193.01216397269238
 51
346.98783602773022
  0
LINE
  5
59
330
33
100
AcDbEntity
  8
Plywoodparts
 62
7
100
AcDbLine
 10
12.095963609467471
 20
-2.5471182003240194
 30
0
 11
11.467071002185548
 21
-0.10047828290157457
 31
0
  0
ARC
  5
5A
330
33
100
AcDbEntity
  8
Plywoodparts
 62
7
100
AcDbCircle
 10
11.345992022979409
 20
-0.12748871359647543
 30
0
 40
0.12405515939256928
100
AcDbArc
 50
12.575692945913009
 51
167.42430705352817
  0
LINE
  5
5B
330
33
100
AcDbEntity
  8
Plywoodparts
 62
7
100
AcDbLine
 10
11.22491304377354
 20
-0.10047828290039511
 30
0
 11
10.596020436492641
 21
-2.5471182003228403
 31
0
  0
ARC
  5
5C
330
33
100
AcDbEntity
  8
Plywoodparts
 62
7
100
AcDbCircle
 10
10.436810899606829
 20
-2.5103261788208879
 30
0
 40
0.16340541448063109
100
AcDbArc
 50
193.0121639719537
 51
346.98783602846913
  0
LINE
  5
5D
330
33
100
AcDbEntity
  8
Plywoodparts
 62
7
100
AcDbLine
 10
10.277601362721271
 20
-2.54711820032402
 30
0
 11
9.6487087554414614
 21
-0.1004782829015749
 31
0
  0
ARC
  5
5E
330
33
100
AcDbEntity
  8
Plywoodparts
 62
7
100
AcDbCircle
 10
9.5276297762342672
 20
-0.12748871358426864
 30
0
 40
0.12405515939099605
100
AcDbArc
 50
12.575692940304212
 51
167.42430705913733
  0
LINE
  5
5F
330
33
100
AcDbEntity
  8
Plywoodparts
 62
7
100
AcDbLine
 10
9.40655079702734
 20
-0.10047828290039544
 30
0
 11
8.7776581897485357
 21
-2.5471182003228403
 31
0
  0
ARC
  5
60
330
33
100
AcDbEntity
  8
Plywoodparts
 62
7
100
AcDbCircle
 10
8.6184486528616873
 20
-2.5103261787874072
 30
0
 40
0.16340541448923188
100
AcDbArc
 50
193.0121639833084
 51
346.98783601711295
  0
LINE
  5
61
330
33
100
AcDbEntity
  8
Plywoodparts
 62
7
100
AcDbLine
 10
8.45923911597507
 20
-2.5471182003240203
 30
0
 11
7.8303465086934168
 21
-0.10047828290157523
 31
0
  0
ARC
  5
62
330
33
100
AcDbEntity
  8
Plywoodparts
 62
7
100
AcDbCircle
 10
7.7092675294871533
 20
-0.12748871357244554
 30
0
 40
0.12405515938748582
100
AcDbArc
 50
12.575692935068084
 51
167.42430706437489
  0
LINE
  5
63
330
33
100
AcDbEntity
  8
Plywoodparts
 62
7
100
AcDbLine
 10
7.5881885502811421
 20
-0.10047828290039579
 30
0
 11
6.95929594300051
 21
-2.5471182003228408
 31
0
  0
ARC
  5
64
330
33
100
AcDbEntity
  8
Plywoodparts
 62
7
100
AcDbCircle
 10
6.8000864061145743
 20
-2.5103261787992168
 30
0
 40
0.16340541448567517
100
AcDbArc
 50
193.01216397934621
 51
346.98783602107528
  0
LINE
  5
65
330
33
100
AcDbEntity
  8
Plywoodparts
 62
7
100
AcDbLine
 10
6.6408768692288733
 20
-2.5471182003240203
 30
0
 11
6.01198426194933
 21
-0.10047828290157557
 31
0
  0
ARC
  5
66
330
33
100
AcDbEntity
  8
Plywoodparts
 62
7
100
AcDbCircle
 10
5.8909052827420112
 20
-0.1274887135850509
 30
0
 40
0.12405515939125983
100
AcDbArc
 50
12.575692940644032
 51
167.42430705879752
  0
LINE
  5
67
330
33
100
AcDbEntity
  8
Plywoodparts
 62
7
100
AcDbLine
 10
5.7698263035349591
 20
-0.10047828290039612
 30
0
 11
5.1409336962564227
 21
-2.5471182003228412
 31
0
  0
ARC
  5
68
330
33
100
AcDbEntity
  8
Plywoodparts
 62
7
100
AcDbCircle
 10
4.9817241593694144
 20
-2.5103261788078859
 30
0
 40
0.16340541448477047
100
AcDbArc
 50
193.01216397630253
 51
346.98783602412146
  0
LINE
  5
69
330
33
100
AcDbEntity
  8
Plywoodparts
 62
7
100
AcDbLine
 10
4.8225146224826725
 20
-2.5471182003240207
 30
0
 11
4.1936220152013064
 21
-0.1004782829015759
 31
0
  0
ARC
  5
6A
330
33
100
AcDbEntity
  8
Plywoodparts
 62
7
100
AcDbCircle
 10
4.0725430359949151
 20
-0.12748871357362571
 30
0
 40
0.12405515938785867
100
AcDbArc
 50
12.575692935586913
 51
167.42430706385963
  0
LINE
  5
6B
330
33
100
AcDbEntity
  8
Plywoodparts
 62
7
100
AcDbLine
 10
3.9514640567887405
 20
-0.10047828290039645
 30
0
 11
3.3225714495083776
 21
-2.5471182003228416
 31
0
  0
ARC
  5
6C
330
33
100
AcDbEntity
  8
Plywoodparts
 62
7
100
AcDbCircle
 10
3.1633619126223178
 20
-2.5103261787877922
 30
0
 40
0.16340541448832993
100
AcDbArc
 50
193.01216398323942
 51
346.98783601718173
  0
LINE
  5
6D
330
33
100
AcDbEntity
  8
Plywoodparts
 62
7
100
AcDbLine
 10
3.004152375736489
 20
-2.5471182003240211
 30
0
 11
2.3752597684571981
 21
-0.10047828290157625
 31
0
  0
ARC
  5
6E
330
33
100
AcDbEntity
  8
Plywoodparts
 62
7
100
AcDbCircle
 10
2.2541807892497516
 20
-0.12748871359489969
 30
0
 40
0.12405515939354095
100
AcDbArc
 50
12.57569294507047
 51
167.42430705437215
  0
LINE
  5
6F
330
33
100
AcDbEntity
  8
Plywoodparts
 62
7
100
AcDbLine
 10
2.1331018100425609
 20
-0.10047828290039679
 30
0
 11
1.5042092027642942
 21
-2.5471182003228416
 31
0
  0
ARC
  5
70
330
33
100
AcDbEntity
  8
Plywoodparts
 62
7
100
AcDbCircle
 10
1.3449996658771544
 20
-2.51032617882916
 30
0
 40
0.1634054144800626
100
AcDbArc
 50
193.0121639690237
 51
346.98783603139958
  0
LINE
  5
71
330
33
100
AcDbEntity
  8
Plywoodparts
 62
7
100
AcDbLine
 10
1.1857901289902704
 20
-2.5471182003240216
 30
0
 11
0.55689752170917473
 21
-0.10047828290157658
 31
0
  0
ARC
  5
72
330
33
100
AcDbEntity
  8
Plywoodparts
 62
7
100
AcDbCircle
 10
0.42732568422219686
 20
-0.13378386666143163
 30
0
 40
0.13378386666312597
100
AcDbArc
 50
14.415427167571906
 51
89.999999998834511
  0
LINE
  5
73
330
33
100
AcDbEntity
  8
Plywoodparts
 62
7
100
AcDbLine
 10
0.42732568422491823
 20
1.5774833718421294E-12
 30
0
 11
0
 21
0
 31
0
  0
CIRCLE
  5
74
330
33
100
AcDbEntity
  8
Plywoodparts
 62
7
100
AcDbCircle
 10
9.0730392145477445
 20
-4.27165354330708
 30
0
 40
0.07874015748031496
  0
ENDBLK
  5
75
330
33
100
AcDbEntity
  8
0
100
AcDbBlockEnd
  0
BLOCK
  5
77
330
76
100
AcDbEntity
  8
0
100
AcDbBlockBegin
  2
3
 70
64
 10
0
 20
0
 30
1
  3
3
  0
LINE
  5
78
330
76
100
AcDbEntity
  8
Plywoodparts
 62
7
100
AcDbLine
 10
0
 20
0
 30
0
 11
1.4710400280535545
 21
-4.6877805515548883E-13
 31
0
  0
ARC
  5
79
330
76
100
AcDbEntity
  8
Plywoodparts
 62
7
100
AcDbCircle
 10
2.8263256161267627
 20
-1.6893893452911395
 30
0
 40
2.1658336467098898
100
AcDbArc
 50
51.262228392468728
 51
128.73777160765405
  0
LINE
  5
7A
330
76
100
AcDbEntity
  8
Plywoodparts
 62
7
100
AcDbLine
 10
4.1816112041963578
 20
2.4447791106923946E-12
 30
0
 11
5.4761910991463552
 21
1.3791235473647033E-12
 31
0
  0
ARC
  5
7B
330
76
100
AcDbEntity
  8
Plywoodparts
 62
7
100
AcDbCircle
 10
7.7607932513451781
 20
-5.2272846920195226
 30
0
 40
5.7047271841226381
100
AcDbArc
 50
66.880206069496424
 51
113.607893182973
  0
LINE
  5
7C
330
76
100
AcDbEntity
  8
Plywoodparts
 62
7
100
AcDbLine
 10
10.000782123625491
 20
0.019272474096930895
 30
0
 11
14.264130470216045
 21
3.4640981101638619
 31
0
  0
LINE
  5
7D
330
76
100
AcDbEntity
  8
Plywoodparts
 62
7
100
AcDbLine
 10
14.264130470216045
 20
3.4640981101638619
 30
0
 11
14.759527227538879
 21
2.8520660090181895
 31
0
  0
LINE
  5
7E
330
76
100
AcDbEntity
  8
Plywoodparts
 62
7
100
AcDbLine
 10
14.759527227538879
 20
2.8520660090181895
 30
0
 11
15.67757537925935
 21
3.5951611450024448
 31
0
  0
LINE
  5
7F
330
76
100
AcDbEntity
  8
Plywoodparts
 62
7
100
AcDbLine
 10
15.67757537925935
 20
3.5951611450024448
 30
0
 11
15.182178621936517
 21
4.2071932461481172
 31
0
  0
LINE
  5
80
330
76
100
AcDbEntity
  8
Plywoodparts
 62
7
100
AcDbLine
 10
15.182178621936517
 20
4.2071932461481172
 30
0
 11
17.128703729268878
 21
5.7836635996652408
 31
0
  0
LINE
  5
81
330
76
100
AcDbEntity
  8
Plywoodparts
 62
7
100
AcDbLine
 10
17.128703729268878
 20
5.7836635996652408
 30
0
 11
16.880234288739668
 21
11.988990148726858
 31
0
  0
LINE
  5
82
330
76
100
AcDbEntity
  8
Plywoodparts
 62
7
100
AcDbLine
 10
16.880234288739668
 20
11.988990148726858
 30
0
 11
16.403261953231794
 21
12.067994975683556
 31
0
  0
LINE
  5
83
330
76
100
AcDbEntity
  8
Plywoodparts
 62
7
100
AcDbLine
 10
16.403261953231794
 20
12.067994975683556
 30
0
 11
16.371986245680613
 21
12.804500765317409
 31
0
  0
LINE
  5
84
330
76
100
AcDbEntity
  8
Plywoodparts
 62
7
100
AcDbLine
 10
16.371986245680613
 20
12.804500765317409
 30
0
 11
12.730417138034943
 21
13.407683624750478
 31
0
  0
LINE
  5
85
330
76
100
AcDbEntity
  8
Plywoodparts
 62
7
100
AcDbLine
 10
12.730417138034943
 20
13.407683624750478
 30
0
 11
12.497814378704236
 21
11.821044102246541
 31
0
  0
LINE
  5
86
330
76
100
AcDbEntity
  8
Plywoodparts
 62
7
100
AcDbLine
 10
12.497814378704236
 20
11.821044102246541
 30
0
 11
12.029424441956204
 21
11.898627356341033
 31
0
  0
LINE
  5
87
330
76
100
AcDbEntity
  8
Plywoodparts
 62
7
100
AcDbLine
 10
12.029424441956204
 20
11.898627356341033
 30
0
 11
12.261974178212107
 21
13.4852756614552
 31
0
  0
LINE
  5
88
330
76
100
AcDbEntity
  8
Plywoodparts
 62
7
100
AcDbLine
 10
12.261974178212107
 20
13.4852756614552
 30
0
 11
11.096748228916361
 21
13.678281560606935
 31
0
  0
ARC
  5
89
330
76
100
AcDbEntity
  8
Plywoodparts
 62
7
100
AcDbCircle
 10
13.19120151604573
 20
26.323031438510476
 30
0
 40
12.817036866870156
100
AcDbArc
 50
239.26608532871231
 51
260.59502294020467
  0
ARC
  5
8A
330
76
100
AcDbEntity
  8
Plywoodparts
 62
7
100
AcDbCircle
 10
0.73552001402409251
 20
5.3735305425845326
 30
0
 40
11.555603315682992
100
AcDbArc
 50
59.266085328805559
 51
120.73391467122058
  0
ARC
  5
8B
330
76
100
AcDbEntity
  8
Plywoodparts
 62
7
100
AcDbCircle
 10
-11.720161488000016
 20
26.32303143850902
 30
0
 40
12.817036866870156
100
AcDbArc
 50
279.40497705977782
 51
300.733914671277
  0
LINE
  5
8C
330
76
100
AcDbEntity
  8
Plywoodparts
 62
7
100
AcDbLine
 10
-9.6257082008745112
 20
13.678281560604814
 30
0
 11
-10.790934150165844
 21
13.485275661451267
 31
0
  0
LINE
  5
8D
330
76
100
AcDbEntity
  8
Plywoodparts
 62
7
100
AcDbLine
 10
-10.790934150165844
 20
13.485275661451267
 30
0
 11
-10.558384413909939
 21
11.8986273563371
 31
0
  0
LINE
  5
8E
330
76
100
AcDbEntity
  8
Plywoodparts
 62
7
100
AcDbLine
 10
-10.558384413909939
 20
11.8986273563371
 30
0
 11
-11.026774350657972
 21
11.821044102242608
 31
0
  0
LINE
  5
8F
330
76
100
AcDbEntity
  8
Plywoodparts
 62
7
100
AcDbLine
 10
-11.026774350657972
 20
11.821044102242608
 30
0
 11
-11.259377109988678
 21
13.407683624746545
 31
0
  0
LINE
  5
90
330
76
100
AcDbEntity
  8
Plywoodparts
 62
7
100
AcDbLine
 10
-11.259377109988678
 20
13.407683624746545
 30
0
 11
-14.900946217634344
 21
12.804500765309532
 31
0
  0
LINE
  5
91
330
76
100
AcDbEntity
  8
Plywoodparts
 62
7
100
AcDbLine
 10
-14.900946217634344
 20
12.804500765309532
 30
0
 11
-14.932221925185532
 21
12.067994975679616
 31
0
  0
LINE
  5
92
330
76
100
AcDbEntity
  8
Plywoodparts
 62
7
100
AcDbLine
 10
-14.932221925185532
 20
12.067994975679616
 30
0
 11
-15.409194260691196
 21
11.988990148720594
 31
0
  0
LINE
  5
93
330
76
100
AcDbEntity
  8
Plywoodparts
 62
7
100
AcDbLine
 10
-15.409194260691196
 20
11.988990148720594
 30
0
 11
-15.657663701220962
 21
5.7836635996599295
 31
0
  0
LINE
  5
94
330
76
100
AcDbEntity
  8
Plywoodparts
 62
7
100
AcDbLine
 10
-15.657663701220962
 20
5.7836635996599295
 30
0
 11
-13.711138593886314
 21
4.20719324614417
 31
0
  0
LINE
  5
95
330
76
100
AcDbEntity
  8
Plywoodparts
 62
7
100
AcDbLine
 10
-13.711138593886314
 20
4.20719324614417
 30
0
 11
-14.206535351209151
 21
3.5951611449985119
 31
0
  0
LINE
  5
96
330
76
100
AcDbEntity
  8
Plywoodparts
 62
7
100
AcDbLine
 10
-14.206535351209151
 20
3.5951611449985119
 30
0
 11
-13.288487199488678
 21
2.8520660090103203
 31
0
  0
LINE
  5
97
330
76
100
AcDbEntity
  8
Plywoodparts
 62
7
100
AcDbLine
 10
-13.288487199488678
 20
2.8520660090103203
 30
0
 11
-12.793090442165845
 21
3.4640981101599291
 31
0
  0
LINE
  5
98
330
76
100
AcDbEntity
  8
Plywoodparts
 62
7
100
AcDbLine
 10
-12.793090442165845
 20
3.4640981101599291
 30
0
 11
-8.5297420954960046
 21
0.01927247409000794
 31
0
  0
ARC
  5
99
330
76
100
AcDbEntity
  8
Plywoodparts
 62
7
100
AcDbCircle
 10
-6.2897552131230077
 20
-5.2277518629479909
 30
0
 40
5.7051560562943306
100
AcDbArc
 50
66.393967418041854
 51
113.11793332959172
  0
LINE
  5
9A
330
76
100
AcDbEntity
  8
Plywoodparts
 62
7
100
AcDbLine
 10
-4.0051510710162361
 20
-1.4926302346401325E-12
 30
0
 11
-2.7105711760971261
 21
-4.69290154833133E-13
 31
0
  0
ARC
  5
9B
330
76
100
AcDbEntity
  8
Plywoodparts
 62
7
100
AcDbCircle
 10
-1.3552855880482893
 20
-1.6893893453112556
 30
0
 40
2.1658336467103307
100
AcDbArc
 50
51.262228393200907
 51
128.73777160681817
  0
CIRCLE
  5
9C
330
76
100
AcDbEntity
  8
Plywoodparts
 62
7
100
AcDbCircle
 10
6.2079609589050184
 20
8.0705748915339441
 30
0
 40
0.11811023622047125
  0
CIRCLE
  5
9D
330
76
100
AcDbEntity
  8
Plywoodparts
 62
7
100
AcDbCircle
 10
14.847003735405021
 20
3.6826376528685874
 30
0
 40
0.19685039370078503
  0
CIRCLE
  5
9E
330
76
100
AcDbEntity
  8
Plywoodparts
 62
7
100
AcDbCircle
 10
-4.7369209308587594
 20
8.0705748915300077
 30
0
 40
0.11811023622047125
  0
CIRCLE
  5
9F
330
76
100
AcDbEntity
  8
Plywoodparts
 62
7
100
AcDbCircle
 10
-13.375963707358757
 20
3.6826376528646545
 30
0
 40
0.19685039370078503
  0
ARC
  5
A0
330
76
100
AcDbEntity
  8
Plywoodparts
 62
7
100
AcDbCircle
 10
-8.6552306546054165
 20
8.6542891745689072
 30
0
 40
0.44271256086394489
100
AcDbArc
 50
60.138021514847672
 51
253.44629199239989
  0
ARC
  5
A1
330
76
100
AcDbEntity
  8
Plywoodparts
 62
7
100
AcDbCircle
 10
-8.6698314347616741
 20
8.6605494429431555
 30
0
 40
0.44483334515483069
100
AcDbArc
 50
255.47913141844023
 51
58.105182088807553
  0
LINE
  5
A2
330
76
100
AcDbEntity
  8
Plywoodparts
 62
7
100
AcDbLine
 10
13.904811352605808
 20
7.53907882854182
 30
0
 11
10.75520505339321
 21
7.5390788285418191
 31
0
  0
ARC
  5
A3
330
76
100
AcDbEntity
  8
Plywoodparts
 62
7
100
AcDbCircle
 10
10.75520505339321
 20
7.4603386710615007
 30
0
 40
0.07874015748031496
100
AcDbArc
 50
90
 51
270
  0
LINE
  5
A4
330
76
100
AcDbEntity
  8
Plywoodparts
 62
7
100
AcDbLine
 10
10.75520505339321
 20
7.3815985135811895
 30
0
 11
13.904811352605808
 21
7.38159851358119
 31
0
  0
ARC
  5
A5
330
76
100
AcDbEntity
  8
Plywoodparts
 62
7
100
AcDbCircle
 10
13.904811339435335
 20
7.4603386710615016
 30
0
 40
0.078740157480316153
100
AcDbArc
 50
270.00000958357879
 51
89.999990416421241
  0
LINE
  5
A6
330
76
100
AcDbEntity
  8
Plywoodparts
 62
7
100
AcDbLine
 10
10.755205053393212
 20
4.330708661419771
 30
0
 11
10.755205053393212
 21
3.1496062992583531
 31
0
  0
ARC
  5
A7
330
76
100
AcDbEntity
  8
Plywoodparts
 62
7
100
AcDbCircle
 10
10.833945210873525
 20
3.1496063125113749
 30
0
 40
0.078740157480317319
100
AcDbArc
 50
180.00000964364611
 51
359.99999032492354
  0
LINE
  5
A8
330
76
100
AcDbEntity
  8
Plywoodparts
 62
7
100
AcDbLine
 10
10.91268536835384
 20
3.1496062992151592
 30
0
 11
10.91268536835384
 21
4.3307086614197718
 31
0
  0
ARC
  5
A9
330
76
100
AcDbEntity
  8
Plywoodparts
 62
7
100
AcDbCircle
 10
10.833945210873525
 20
4.3307086426466563
 30
0
 40
0.078740157480317319
100
AcDbArc
 50
1.3660377642847681E-05
 51
179.999986339623
  0
ARC
  5
AA
330
76
100
AcDbEntity
  8
Plywoodparts
 62
7
100
AcDbCircle
 10
-12.433771305786435
 20
7.4603386710575688
 30
0
 40
0.078740157480317319
100
AcDbArc
 50
90.00001366037182
 51
269.99998633962815
  0
LINE
  5
AB
330
76
100
AcDbEntity
  8
Plywoodparts
 62
7
100
AcDbLine
 10
-12.433771324559542
 20
7.38159851357725
 30
0
 11
-9.28416502534695
 21
7.3815985135772513
 31
0
  0
ARC
  5
AC
330
76
100
AcDbEntity
  8
Plywoodparts
 62
7
100
AcDbCircle
 10
-9.2841650345856923
 20
7.46033867105757
 30
0
 40
0.078740157480316153
100
AcDbArc
 50
270.00000672263053
 51
89.999993277369455
  0
LINE
  5
AD
330
76
100
AcDbEntity
  8
Plywoodparts
 62
7
100
AcDbLine
 10
-9.28416502534695
 20
7.5390788285378809
 30
0
 11
-12.433771324559542
 21
7.53907882853788
 31
0
  0
ARC
  5
AE
330
76
100
AcDbEntity
  8
Plywoodparts
 62
7
100
AcDbCircle
 10
-9.3629051828272658
 20
4.3307086426427253
 30
0
 40
0.078740157480317319
100
AcDbArc
 50
1.3660371826248664E-05
 51
179.99998633962818
  0
LINE
  5
AF
330
76
100
AcDbEntity
  8
Plywoodparts
 62
7
100
AcDbLine
 10
-9.44164534030758
 20
4.3307086614158328
 30
0
 11
-9.44164534030758
 21
3.1496062992109857
 31
0
  0
ARC
  5
B0
330
76
100
AcDbEntity
  8
Plywoodparts
 62
7
100
AcDbCircle
 10
-9.3629051828272658
 20
3.1496062859600458
 30
0
 40
0.078740157480317319
100
AcDbArc
 50
179.99999035786877
 51
9.6765965068629458E-06
  0
LINE
  5
B1
330
76
100
AcDbEntity
  8
Plywoodparts
 62
7
100
AcDbLine
 10
-9.2841650253469474
 20
3.1496062992583505
 30
0
 11
-9.2841650253469474
 21
4.3307086614158328
 31
0
  0
ENDBLK
  5
B2
330
76
100
AcDbEntity
  8
0
100
AcDbBlockEnd
  0
BLOCK
  5
B4
330
B3
100
AcDbEntity
  8
0
100
AcDbBlockBegin
  2
53
 70
64
 10
0
 20
0
 30
1
  3
53
  0
LINE
  5
B5
330
B3
100
AcDbEntity
  8
Plywoodparts
 62
7
100
AcDbLine
 10
0
 20
0
 30
0
 11
-0.71859232333822909
 21
2.4358136160164321
 31
0
  0
ARC
  5
B6
330
B3
100
AcDbEntity
  8
Plywoodparts
 62
7
100
AcDbCircle
 10
-0.85075634341960693
 20
2.3968237484735795
 30
0
 40
0.13779527559055393
100
AcDbArc
 50
16.4366501124477
 51
165.33634830194782
  0
LINE
  5
B7
330
B3
100
AcDbEntity
  8
Plywoodparts
 62
7
100
AcDbLine
 10
-0.98406342591515694
 20
2.4317058317198672
 30
0
 11
-1.6269483296544887
 21
-0.025174690341060468
 31
0
  0
ARC
  5
B8
330
B3
100
AcDbEntity
  8
Plywoodparts
 62
7
100
AcDbCircle
 10
-1.7983431500061018
 20
0.019673702403480431
 30
0
 40
0.17716535433071023
100
AcDbArc
 50
196.436650111597
 51
345.33634830217818
  0
LINE
  5
B9
330
B3
100
AcDbEntity
  8
Plywoodparts
 62
7
100
AcDbLine
 10
-1.968268318682874
 20
-0.030456127291941349
 30
0
 11
-2.6868606420193348
 21
2.4053574887211511
 31
0
  0
ARC
  5
BA
330
B3
100
AcDbEntity
  8
Plywoodparts
 62
7
100
AcDbCircle
 10
-2.81902466210071
 20
2.3663676211783127
 30
0
 40
0.13779527559054763
100
AcDbArc
 50
16.436650112442351
 51
165.33634830195368
  0
LINE
  5
BB
330
B3
100
AcDbEntity
  8
Plywoodparts
 62
7
100
AcDbLine
 10
-2.9523317445962611
 20
2.4012497044245862
 30
0
 11
-3.595216648335593
 21
-0.055630817632404961
 31
0
  0
ARC
  5
BC
330
B3
100
AcDbEntity
  8
Plywoodparts
 62
7
100
AcDbCircle
 10
-3.7666114686877172
 20
-0.01078242488995306
 30
0
 40
0.17716535433071023
100
AcDbArc
 50
196.4366501122168
 51
345.33634830287366
  0
LINE
  5
BD
330
B3
100
AcDbEntity
  8
Plywoodparts
 62
7
100
AcDbLine
 10
-3.9365366373639787
 20
-0.060912254587222249
 30
0
 11
-4.6551289607004342
 21
2.3749013614258705
 31
0
  0
ARC
  5
BE
330
B3
100
AcDbEntity
  8
Plywoodparts
 62
7
100
AcDbCircle
 10
-4.7872929807818139
 20
2.3359114938830463
 30
0
 40
0.13779527559054883
100
AcDbArc
 50
16.436650112436158
 51
165.33634830194785
  0
LINE
  5
BF
330
B3
100
AcDbEntity
  8
Plywoodparts
 62
7
100
AcDbLine
 10
-4.9206000632773641
 20
2.370793577129334
 30
0
 11
-5.5634849670206323
 21
-0.086086944927657436
 31
0
  0
ARC
  5
C0
330
B3
100
AcDbEntity
  8
Plywoodparts
 62
7
100
AcDbCircle
 10
-5.7348797873709074
 20
-0.041238552178171163
 30
0
 40
0.17716535433070629
100
AcDbArc
 50
196.43665011459433
 51
345.33634830052142
  0
LINE
  5
C1
330
B3
100
AcDbEntity
  8
Plywoodparts
 62
7
100
AcDbLine
 10
-5.90480495604508
 20
-0.091368381882488942
 30
0
 11
-6.6233972793815763
 21
2.3444452341345259
 31
0
  0
ARC
  5
C2
330
B3
100
AcDbEntity
  8
Plywoodparts
 62
7
100
AcDbCircle
 10
-6.7555612994622454
 20
2.3054553665893711
 30
0
 40
0.13779527559054566
100
AcDbArc
 50
16.436650113449218
 51
90.886499208655977
  0
LINE
  5
C3
330
B3
100
AcDbEntity
  8
Plywoodparts
 62
7
100
AcDbLine
 10
-6.7576932283757882
 20
2.4432341488970342
 30
0
 11
-7.1217605040687015
 21
2.43760073040491
 31
0
  0
ARC
  5
C4
330
B3
100
AcDbEntity
  8
Plywoodparts
 62
7
100
AcDbCircle
 10
-1691.2351708001791
 20
-30.331528698284824
 30
0
 40
1684.432187588063
100
AcDbArc
 50
358.93755097169941
 51
1.1147087296570457
  0
ARC
  5
C5
330
B3
100
AcDbEntity
  8
Plywoodparts
 62
7
100
AcDbCircle
 10
-2228.932835711164
 20
-22.310235820033917
 30
0
 40
2222.186998977626
100
AcDbArc
 50
358.20160668469225
 51
358.98783315848425
  0
LINE
  5
C6
330
B3
100
AcDbEntity
  8
Plywoodparts
 62
7
100
AcDbLine
 10
-7.84039540332068
 20
-92.04853256256753
 30
0
 11
-7.8384164912970578
 21
-92.166626177559635
 31
0
  0
LINE
  5
C7
330
B3
100
AcDbEntity
  8
Plywoodparts
 62
7
100
AcDbLine
 10
-7.8384164912970578
 20
-92.166626177559635
 30
0
 11
2.230083211033651
 21
-90.918834840862829
 31
0
  0
LINE
  5
C8
330
B3
100
AcDbEntity
  8
Plywoodparts
 62
7
100
AcDbLine
 10
2.230083211033651
 20
-90.918834840862829
 30
0
 11
2.228576956019634
 21
-90.802509136267133
 31
0
  0
ARC
  5
C9
330
B3
100
AcDbEntity
  8
Plywoodparts
 62
7
100
AcDbCircle
 10
-7454.0434044143858
 20
-194.321410994471
 30
0
 40
7456.99054734626
100
AcDbArc
 50
0.79541292948642883
 51
1.1344454731387939
  0
ARC
  5
CA
330
B3
100
AcDbEntity
  8
Plywoodparts
 62
7
100
AcDbCircle
 10
-43477.260794744623
 20
-835.926004323499
 30
0
 40
43485.909006942122
100
AcDbArc
 50
1.0399395056340421
 51
1.0812566009145816
  0
ARC
  5
CB
330
B3
100
AcDbEntity
  8
Plywoodparts
 62
7
100
AcDbCircle
 10
-1875.5212295113404
 20
-53.748491607149965
 30
0
 40
1876.8195225166141
100
AcDbArc
 50
1.1728984898056158
 51
1.6373557046751019
  0
LINE
  5
CC
330
B3
100
AcDbEntity
  8
Plywoodparts
 62
7
100
AcDbLine
 10
0.53198428046279567
 20
-0.12145438770532738
 30
0
 11
0.17266622013177191
 21
-0.12701431898118187
 31
0
  0
ARC
  5
CD
330
B3
100
AcDbEntity
  8
Plywoodparts
 62
7
100
AcDbCircle
 10
0.16992516867539287
 20
0.050129829700196631
 30
0
 40
0.17716535433073388
100
AcDbArc
 50
196.43665011320431
 51
270.88649920739749
  0
CIRCLE
  5
CE
330
B3
100
AcDbEntity
  8
Plywoodparts
 62
7
100
AcDbCircle
 10
-4.7548434424938986
 20
-3.4123059800202777
 30
0
 40
0.0984251969086626
  0
CIRCLE
  5
CF
330
B3
100
AcDbEntity
  8
Plywoodparts
 62
7
100
AcDbCircle
 10
-2.8477277577655666
 20
-89.574664971445486
 30
0
 40
0.098425196850557867
  0
LINE
  5
D0
330
B3
100
AcDbEntity
  8
Plywoodparts
 62
7
100
AcDbLine
 10
-6.0744729152773731
 20
-75.856480720776176
 30
0
 11
-5.093758761245879
 21
-75.844254738291951
 31
0
  0
LINE
  5
D1
330
B3
100
AcDbEntity
  8
Plywoodparts
 62
7
100
AcDbLine
 10
-5.093758761245879
 20
-75.844254738291951
 30
0
 11
-5.0482646360280414
 21
-75.838010737688364
 31
0
  0
LINE
  5
D2
330
B3
100
AcDbEntity
  8
Plywoodparts
 62
7
100
AcDbLine
 10
-5.0482646360280414
 20
-75.838010737688364
 30
0
 11
-5.0192752289322931
 21
-75.828093377598236
 31
0
  0
LINE
  5
D3
330
B3
100
AcDbEntity
  8
Plywoodparts
 62
7
100
AcDbLine
 10
-5.0192752289322931
 20
-75.828093377598236
 30
0
 11
-4.9572479265943441
 21
-75.783882548136418
 31
0
  0
LINE
  5
D4
330
B3
100
AcDbEntity
  8
Plywoodparts
 62
7
100
AcDbLine
 10
-4.9572479265943441
 20
-75.783882548136418
 30
0
 11
-4.915982030726112
 21
-75.71980135185845
 31
0
  0
LINE
  5
D5
330
B3
100
AcDbEntity
  8
Plywoodparts
 62
7
100
AcDbLine
 10
-4.915982030726112
 20
-75.71980135185845
 30
0
 11
-4.9009268812520173
 21
-75.645002636333643
 31
0
  0
LINE
  5
D6
330
B3
100
AcDbEntity
  8
Plywoodparts
 62
7
100
AcDbLine
 10
-4.9009268812520173
 20
-75.645002636333643
 30
0
 11
-4.8122521549702855
 21
-71.659345018512425
 31
0
  0
LINE
  5
D7
330
B3
100
AcDbEntity
  8
Plywoodparts
 62
7
100
AcDbLine
 10
-4.8122521549702855
 20
-71.659345018512425
 30
0
 11
-4.8167704502635935
 21
-71.610861436925376
 31
0
  0
LINE
  5
D8
330
B3
100
AcDbEntity
  8
Plywoodparts
 62
7
100
AcDbLine
 10
-4.8167704502635935
 20
-71.610861436925376
 30
0
 11
-4.8255716202250509
 21
-71.57959162740687
 31
0
  0
ARC
  5
D9
330
B3
100
AcDbEntity
  8
Plywoodparts
 62
7
100
AcDbCircle
 10
-5.0145561962341825
 20
-71.649474545376165
 30
0
 40
0.20149141965171888
100
AcDbArc
 50
20.293439415503673
 51
43.414997850395551
  0
LINE
  5
DA
330
B3
100
AcDbEntity
  8
Plywoodparts
 62
7
100
AcDbLine
 10
-4.868193878211545
 20
-71.5109939905813
 30
0
 11
-4.92348173808068
 21
-71.4691666893372
 31
0
  0
LINE
  5
DB
330
B3
100
AcDbEntity
  8
Plywoodparts
 62
7
100
AcDbLine
 10
-4.92348173808068
 20
-71.4691666893372
 30
0
 11
-4.9670158773803275
 21
-71.453276782908844
 31
0
  0
LINE
  5
DC
330
B3
100
AcDbEntity
  8
Plywoodparts
 62
7
100
AcDbLine
 10
-4.9670158773803275
 20
-71.453276782908844
 30
0
 11
-5.0130896937739076
 21
-71.448159020373055
 31
0
  0
LINE
  5
DD
330
B3
100
AcDbEntity
  8
Plywoodparts
 62
7
100
AcDbLine
 10
-5.0130896937739076
 20
-71.448159020373055
 30
0
 11
-5.9893753548954827
 21
-71.4613301788746
 31
0
  0
LINE
  5
DE
330
B3
100
AcDbEntity
  8
Plywoodparts
 62
7
100
AcDbLine
 10
-5.9893753548954827
 20
-71.4613301788746
 30
0
 11
-6.0347521623709923
 21
-71.467566181146637
 31
0
  0
LINE
  5
DF
330
B3
100
AcDbEntity
  8
Plywoodparts
 62
7
100
AcDbLine
 10
-6.0347521623709923
 20
-71.467566181146637
 30
0
 11
-6.0636791343763088
 21
-71.477422994136816
 31
0
  0
LINE
  5
E0
330
B3
100
AcDbEntity
  8
Plywoodparts
 62
7
100
AcDbLine
 10
-6.0636791343763088
 20
-71.477422994136816
 30
0
 11
-6.1256749719043411
 21
-71.521346341247437
 31
0
  0
LINE
  5
E1
330
B3
100
AcDbEntity
  8
Plywoodparts
 62
7
100
AcDbLine
 10
-6.1256749719043411
 20
-71.521346341247437
 30
0
 11
-6.1670610780789081
 21
-71.585115270289961
 31
0
  0
LINE
  5
E2
330
B3
100
AcDbEntity
  8
Plywoodparts
 62
7
100
AcDbLine
 10
-6.1670610780789081
 20
-71.585115270289961
 30
0
 11
-6.1822643629726057
 21
-71.659679762131717
 31
0
  0
LINE
  5
E3
330
B3
100
AcDbEntity
  8
Plywoodparts
 62
7
100
AcDbLine
 10
-6.1822643629726057
 20
-71.659679762131717
 30
0
 11
-6.2753995259466642
 21
-75.644050141465144
 31
0
  0
LINE
  5
E4
330
B3
100
AcDbEntity
  8
Plywoodparts
 62
7
100
AcDbLine
 10
-6.2753995259466642
 20
-75.644050141465144
 30
0
 11
-6.270922984148398
 21
-75.6926922221183
 31
0
  0
LINE
  5
E5
330
B3
100
AcDbEntity
  8
Plywoodparts
 62
7
100
AcDbLine
 10
-6.270922984148398
 20
-75.6926922221183
 30
0
 11
-6.262155594861154
 21
-75.724078000308864
 31
0
  0
ARC
  5
E6
330
B3
100
AcDbEntity
  8
Plywoodparts
 62
7
100
AcDbCircle
 10
-6.0717269417052089
 20
-75.654169492913184
 30
0
 40
0.20285529657637638
100
AcDbArc
 50
200.15875586544286
 51
223.19704453676877
  0
LINE
  5
E7
330
B3
100
AcDbEntity
  8
Plywoodparts
 62
7
100
AcDbLine
 10
-6.2196092515803656
 20
-75.793025871142746
 30
0
 11
-6.1643028114328065
 21
-75.835189426742716
 31
0
  0
LINE
  5
E8
330
B3
100
AcDbEntity
  8
Plywoodparts
 62
7
100
AcDbLine
 10
-6.1643028114328065
 20
-75.835189426742716
 30
0
 11
-6.12068146141509
 21
-75.851263309632884
 31
0
  0
LINE
  5
E9
330
B3
100
AcDbEntity
  8
Plywoodparts
 62
7
100
AcDbLine
 10
-6.12068146141509
 20
-75.851263309632884
 30
0
 11
-6.0744729152773731
 21
-75.856480720776176
 31
0
  0
ENDBLK
  5
EA
330
B3
100
AcDbEntity
  8
0
100
AcDbBlockEnd
  0
BLOCK
  5
EC
330
EB
100
AcDbEntity
  8
0
100
AcDbBlockBegin
  2
32
 70
64
 10
0
 20
0
 30
1
  3
32
  0
CIRCLE
  5
ED
330
EB
100
AcDbEntity
  8
Plywoodparts
 62
7
100
AcDbCircle
 10
0
 20
0
 30
0
 40
2.9527559055118306
  0
CIRCLE
  5
EE
330
EB
100
AcDbEntity
  8
Plywoodparts
 62
7
100
AcDbCircle
 10
0
 20
0
 30
0
 40
2.1653543307086771
  0
ENDBLK
  5
EF
330
EB
100
AcDbEntity
  8
0
100
AcDbBlockEnd
  0
BLOCK
  5
F1
330
F0
100
AcDbEntity
  8
0
100
AcDbBlockBegin
  2
47
 70
64
 10
0
 20
0
 30
1
  3
47
  0
LINE
  5
F2
330
F0
100
AcDbEntity
  8
Plywoodparts
 62
7
100
AcDbLine
 10
0
 20
0
 30
0
 11
-0.76336977282673468
 21
2.4221538945854348
 31
0
  0
ARC
  5
F3
330
F0
100
AcDbEntity
  8
Plywoodparts
 62
7
100
AcDbCircle
 10
-0.89479263451665469
 20
2.3807344619440869
 30
0
 40
0.13779527559055274
100
AcDbArc
 50
17.492847471387162
 51
166.39254565612623
  0
LINE
  5
F4
330
F0
100
AcDbEntity
  8
Plywoodparts
 62
7
100
AcDbLine
 10
-1.0287200517974779
 20
2.4131533588342364
 30
0
 11
-1.6262078582517319
 21
-0.055160077558284018
 31
0
  0
ARC
  5
F5
330
F0
100
AcDbEntity
  8
Plywoodparts
 62
7
100
AcDbCircle
 10
-1.7984002519003184
 20
-0.013478638707098757
 30
0
 40
0.17716535433071495
100
AcDbArc
 50
197.49284746765511
 51
346.39254565864633
  0
LINE
  5
F6
330
F0
100
AcDbEntity
  8
Plywoodparts
 62
7
100
AcDbLine
 10
-1.9673725026478763
 20
-0.066732194949224652
 30
0
 11
-2.7307422754724016
 21
2.355421699636608
 31
0
  0
ARC
  5
F7
330
F0
100
AcDbEntity
  8
Plywoodparts
 62
7
100
AcDbCircle
 10
-2.8621651371645314
 20
2.3140022670023512
 30
0
 40
0.13779527559054922
100
AcDbArc
 50
17.492847468298773
 51
166.39254565914945
  0
LINE
  5
F8
330
F0
100
AcDbEntity
  8
Plywoodparts
 62
7
100
AcDbLine
 10
-2.9960925544470811
 20
2.346421163885438
 30
0
 11
-3.5935803609013419
 21
-0.12189227250708234
 31
0
  0
ARC
  5
F9
330
F0
100
AcDbEntity
  8
Plywoodparts
 62
7
100
AcDbCircle
 10
-3.7657727545487418
 20
-0.080210833651193289
 30
0
 40
0.17716535433071104
100
AcDbArc
 50
197.49284747059187
 51
346.39254565707756
  0
LINE
  5
FA
330
F0
100
AcDbEntity
  8
Plywoodparts
 62
7
100
AcDbLine
 10
-3.93474500529355
 20
-0.1334643899019736
 30
0
 11
-4.6981147781220116
 21
2.2886895046877958
 31
0
  0
ARC
  5
FB
330
F0
100
AcDbEntity
  8
Plywoodparts
 62
7
100
AcDbCircle
 10
-4.8295376398119245
 20
2.247270072046462
 30
0
 40
0.13779527559055274
100
AcDbArc
 50
17.492847471382412
 51
166.39254565612762
  0
LINE
  5
FC
330
F0
100
AcDbEntity
  8
Plywoodparts
 62
7
100
AcDbLine
 10
-4.9634650570927619
 20
2.2796889689366115
 30
0
 11
-5.5609528635470369
 21
-0.18862446745590911
 31
0
  0
ARC
  5
FD
330
F0
100
AcDbEntity
  8
Plywoodparts
 62
7
100
AcDbCircle
 10
-5.7331452571961492
 20
-0.14694302860708283
 30
0
 40
0.17716535433070826
100
AcDbArc
 50
197.49284746819555
 51
346.39254565942781
  0
LINE
  5
FE
330
F0
100
AcDbEntity
  8
Plywoodparts
 62
7
100
AcDbLine
 10
-5.9021175079431529
 20
-0.20019658485078615
 30
0
 11
-6.6654872807676995
 21
2.2219573097389689
 31
0
  0
ARC
  5
FF
330
F0
100
AcDbEntity
  8
Plywoodparts
 62
7
100
AcDbCircle
 10
-6.7969101424598293
 20
2.1805378771047264
 30
0
 40
0.13779527559054841
100
AcDbArc
 50
17.492847468293139
 51
166.39254565915954
  0
LINE
  5
100
330
F0
100
AcDbEntity
  8
Plywoodparts
 62
7
100
AcDbLine
 10
-6.9308375597423648
 20
2.2129567739877847
 30
0
 11
-7.52832536619664
 21
-0.25535666240473587
 31
0
  0
ARC
  5
101
330
F0
100
AcDbEntity
  8
Plywoodparts
 62
7
100
AcDbCircle
 10
-7.7005177598442458
 20
-0.21367522354961419
 30
0
 40
0.17716535433070629
100
AcDbArc
 50
271.94269656420056
 51
346.39254565733438
  0
LINE
  5
102
330
F0
100
AcDbEntity
  8
Plywoodparts
 62
7
100
AcDbLine
 10
-7.6945118622974888
 20
-0.39073874878779646
 30
0
 11
-8.3108992332322771
 21
-0.411646269935431
 31
0
  0
ARC
  5
103
330
F0
100
AcDbEntity
  8
Plywoodparts
 62
7
100
AcDbCircle
 10
1007.1082557537933
 20
-41.175411354294013
 30
0
 40
1016.2370515083662
100
AcDbArc
 50
177.70110873414134
 51
178.85577582755366
  0
ARC
  5
104
330
F0
100
AcDbEntity
  8
Plywoodparts
 62
7
100
AcDbCircle
 10
745.4002209439268
 20
-38.790886837076421
 30
0
 40
754.53893765144483
100
AcDbArc
 50
178.63996563621018
 51
180.19397641749373
  0
ARC
  5
105
330
F0
100
AcDbEntity
  8
Plywoodparts
 62
7
100
AcDbCircle
 10
452.59018574691089
 20
-38.97159957468449
 30
0
 40
461.73068024768503
100
AcDbArc
 50
180.29456349378094
 51
182.5474088325679
  0
LINE
  5
106
330
F0
100
AcDbEntity
  8
Plywoodparts
 62
7
100
AcDbLine
 10
-8.6842063081833167
 20
-59.49369294236655
 30
0
 11
-7.6605858384180134
 21
-59.45897229812951
 31
0
  0
ARC
  5
107
330
F0
100
AcDbEntity
  8
Plywoodparts
 62
7
100
AcDbCircle
 10
-7.66592441401429
 20
-59.301582497917721
 30
0
 40
0.15748031496063777
100
AcDbArc
 50
271.942696563894
 51
346.39254565776065
  0
LINE
  5
108
330
F0
100
AcDbEntity
  8
Plywoodparts
 62
7
100
AcDbLine
 10
-7.512864508549459
 20
-59.338632665787806
 30
0
 11
-6.915376702093166
 21
-56.870319229398675
 31
0
  0
ARC
  5
109
330
F0
100
AcDbEntity
  8
Plywoodparts
 62
7
100
AcDbCircle
 10
-6.7623167966292446
 20
-56.907369397272426
 30
0
 40
0.15748031496062873
100
AcDbArc
 50
17.492847470639568
 51
166.39254565638629
  0
LINE
  5
10A
330
F0
100
AcDbEntity
  8
Plywoodparts
 62
7
100
AcDbLine
 10
-6.61211924041166
 20
-56.860032902827157
 30
0
 11
-5.848749467586881
 21
-59.282186797411192
 31
0
  0
ARC
  5
10B
330
F0
100
AcDbEntity
  8
Plywoodparts
 62
7
100
AcDbCircle
 10
-5.6985519113684937
 20
-59.234850302968447
 30
0
 40
0.1574803149606327
100
AcDbArc
 50
197.49284746967646
 51
346.39254565759182
  0
LINE
  5
10C
330
F0
100
AcDbEntity
  8
Plywoodparts
 62
7
100
AcDbLine
 10
-5.5454920059037853
 20
-59.271900470838979
 30
0
 11
-4.9480041994474924
 21
-56.803587034449862
 31
0
  0
ARC
  5
10D
330
F0
100
AcDbEntity
  8
Plywoodparts
 62
7
100
AcDbCircle
 10
-4.7949442939835727
 20
-56.840637202323606
 30
0
 40
0.157480314960624
100
AcDbArc
 50
17.492847470635414
 51
166.39254565638865
  0
LINE
  5
10E
330
F0
100
AcDbEntity
  8
Plywoodparts
 62
7
100
AcDbLine
 10
-4.6447467377659954
 20
-56.793300707878352
 30
0
 11
-3.8813769649372567
 21
-59.215454602462351
 31
0
  0
ARC
  5
10F
330
F0
100
AcDbEntity
  8
Plywoodparts
 62
7
100
AcDbCircle
 10
-3.7311794087189121
 20
-59.168118108019641
 30
0
 40
0.15748031496062992
100
AcDbArc
 50
197.49284746966882
 51
346.3925456575987
  0
LINE
  5
110
330
F0
100
AcDbEntity
  8
Plywoodparts
 62
7
100
AcDbLine
 10
-3.5781195032541824
 20
-59.205168275890159
 30
0
 11
-2.9806316968018258
 21
-56.736854839501021
 31
0
  0
ARC
  5
111
330
F0
100
AcDbEntity
  8
Plywoodparts
 62
7
100
AcDbCircle
 10
-2.8275717913361937
 20
-56.773905007367723
 30
0
 40
0.15748031496062756
100
AcDbArc
 50
17.492847467935675
 51
166.39254565902519
  0
LINE
  5
112
330
F0
100
AcDbEntity
  8
Plywoodparts
 62
7
100
AcDbLine
 10
-2.6773742351163854
 20
-56.726568512929546
 30
0
 11
-1.9140044622915831
 21
-59.148722407513546
 31
0
  0
ARC
  5
113
330
F0
100
AcDbEntity
  8
Plywoodparts
 62
7
100
AcDbCircle
 10
-1.7638069060732384
 20
-59.101385913070814
 30
0
 40
0.1574803149606327
100
AcDbArc
 50
197.49284746967618
 51
346.39254565759364
  0
LINE
  5
114
330
F0
100
AcDbEntity
  8
Plywoodparts
 62
7
100
AcDbLine
 10
-1.6107470006085087
 20
-59.138436080941347
 30
0
 11
-1.0132591941522087
 21
-56.670122644552215
 31
0
  0
ARC
  5
115
330
F0
100
AcDbEntity
  8
Plywoodparts
 62
7
100
AcDbCircle
 10
-0.8601992886877704
 20
-56.707172812423735
 30
0
 40
0.15748031496062834
100
AcDbArc
 50
17.492847471289569
 51
166.39254565721944
  0
LINE
  5
116
330
F0
100
AcDbEntity
  8
Plywoodparts
 62
7
100
AcDbLine
 10
-0.71000173247071874
 20
-56.659836317976762
 30
0
 11
0.053368040358019835
 21
-59.081990212564733
 31
0
  0
ARC
  5
117
330
F0
100
AcDbEntity
  8
Plywoodparts
 62
7
100
AcDbCircle
 10
0.20356559657637163
 20
-59.034653718121987
 30
0
 40
0.15748031496063111
100
AcDbArc
 50
197.49284746968033
 51
346.39254565759052
  0
LINE
  5
118
330
F0
100
AcDbEntity
  8
Plywoodparts
 62
7
100
AcDbLine
 10
0.35662550204109417
 20
-59.071703885992527
 30
0
 11
0.95411330849345777
 21
-56.603390449603388
 31
0
  0
ARC
  5
119
330
F0
100
AcDbEntity
  8
Plywoodparts
 62
7
100
AcDbCircle
 10
1.1071732139586139
 20
-56.640440617472059
 30
0
 40
0.15748031496063741
100
AcDbArc
 50
91.942696563314655
 51
166.39254565828844
  0
LINE
  5
11A
330
F0
100
AcDbEntity
  8
Plywoodparts
 62
7
100
AcDbLine
 10
1.1018346383639295
 20
-56.483050817260235
 30
0
 11
1.7166422886909381
 21
-56.46219687937446
 31
0
  0
ARC
  5
11B
330
F0
100
AcDbEntity
  8
Plywoodparts
 62
7
100
AcDbCircle
 10
974.23235736570223
 20
-32.576318858623821
 30
0
 40
972.80900039040159
100
AcDbArc
 50
180.81708610310639
 51
181.40695403628794
  0
ARC
  5
11C
330
F0
100
AcDbEntity
  8
Plywoodparts
 62
7
100
AcDbCircle
 10
1252.4319766426829
 20
-28.150393728313055
 30
0
 40
1251.0435304005471
100
AcDbArc
 50
180.32676510617131
 51
180.83807314837537
  0
ARC
  5
11D
330
F0
100
AcDbEntity
  8
Plywoodparts
 62
7
100
AcDbCircle
 10
1213.7577395123167
 20
-22.08147504262654
 30
0
 40
1212.4208469134646
100
AcDbArc
 50
180.3339850670807
 51
180.62398592001276
  0
ARC
  5
11E
330
F0
100
AcDbEntity
  8
Plywoodparts
 62
7
100
AcDbCircle
 10
1135.8027237083406
 20
-22.812310473744773
 30
0
 40
1134.4629290745
100
AcDbArc
 50
180.01009561188104
 51
180.32002479537468
  0
ARC
  5
11F
330
F0
100
AcDbEntity
  8
Plywoodparts
 62
7
100
AcDbCircle
 10
1183.2260400354387
 20
-22.757800439495341
 30
0
 40
1181.8862551713621
100
AcDbArc
 50
179.7148398346379
 51
180.01233307547022
  0
LINE
  5
120
330
F0
100
AcDbEntity
  8
Plywoodparts
 62
7
100
AcDbLine
 10
1.35442271233807
 20
-16.875596000533463
 30
0
 11
1.3702845206381076
 21
-14.245658828539376
 31
0
  0
LINE
  5
121
330
F0
100
AcDbEntity
  8
Plywoodparts
 62
7
100
AcDbLine
 10
1.3702845206381076
 20
-14.245658828539376
 30
0
 11
1.4003008712616485
 21
-10.739141126429132
 31
0
  0
LINE
  5
122
330
F0
100
AcDbEntity
  8
Plywoodparts
 62
7
100
AcDbLine
 10
1.4003008712616485
 20
-10.739141126429132
 30
0
 11
1.4439969777446107
 21
-2.4321101060791364
 31
0
  0
LINE
  5
123
330
F0
100
AcDbEntity
  8
Plywoodparts
 62
7
100
AcDbLine
 10
1.4439969777446107
 20
-2.4321101060791364
 30
0
 11
1.4815041508324425
 21
2.5992116655586557
 31
0
  0
LINE
  5
124
330
F0
100
AcDbEntity
  8
Plywoodparts
 62
7
100
AcDbLine
 10
1.4815041508324425
 20
2.5992116655586557
 30
0
 11
1.0679086144851555
 21
2.5851827320826715
 31
0
  0
ARC
  5
125
330
F0
100
AcDbEntity
  8
Plywoodparts
 62
7
100
AcDbCircle
 10
1.0725798681299994
 20
2.4474666568972481
 30
0
 40
0.13779527559055
100
AcDbArc
 50
91.942696563103723
 51
166.39254565797447
  0
LINE
  5
126
330
F0
100
AcDbEntity
  8
Plywoodparts
 62
7
100
AcDbLine
 10
0.93865245084818871
 20
2.4798855537830633
 30
0
 11
0.34116464439393468
 21
0.011572117394479144
 31
0
  0
ARC
  5
127
330
F0
100
AcDbEntity
  8
Plywoodparts
 62
7
100
AcDbCircle
 10
0.16897225074582423
 20
0.053253556247639715
 30
0
 40
0.17716535433070985
100
AcDbArc
 50
197.49284746952435
 51
346.39254565798922
  0
CIRCLE
  5
128
330
F0
100
AcDbEntity
  8
Plywoodparts
 62
7
100
AcDbCircle
 10
-0.50597153854157984
 20
-1.3853422113547396
 30
0
 40
0.098425196850378732
  0
CIRCLE
  5
129
330
F0
100
AcDbEntity
  8
Plywoodparts
 62
7
100
AcDbCircle
 10
-0.22991010323056194
 20
-54.558586845539772
 30
0
 40
0.098425196850395677
  0
LINE
  5
12A
330
F0
100
AcDbEntity
  8
Plywoodparts
 62
7
100
AcDbLine
 10
-4.7746814580258317
 20
-5.7599373157720493
 30
0
 11
-5.9446006623565424
 21
-5.5956080043744123
 31
0
  0
ARC
  5
12B
330
F0
100
AcDbEntity
  8
Plywoodparts
 62
7
100
AcDbCircle
 10
-5.9555531145938048
 20
-5.6735827194429049
 30
0
 40
0.078740157480314168
100
AcDbArc
 50
82.004452651456759
 51
262.0043947205296
  0
LINE
  5
12C
330
F0
100
AcDbEntity
  8
Plywoodparts
 62
7
100
AcDbLine
 10
-5.9665056456701464
 20
-5.7515574234374043
 30
0
 11
-4.7965864413407928
 21
-5.9158867348350554
 31
0
  0
ARC
  5
12D
330
F0
100
AcDbEntity
  8
Plywoodparts
 62
7
100
AcDbCircle
 10
-4.78563399873204
 20
-5.8379120184141868
 30
0
 40
0.078740157480323231
100
AcDbArc
 50
262.00445972647447
 51
82.004387644535427
  0
ENDBLK
  5
12E
330
F0
100
AcDbEntity
  8
0
100
AcDbBlockEnd
  0
BLOCK
  5
130
330
12F
100
AcDbEntity
  8
0
100
AcDbBlockBegin
  2
39
 70
64
 10
0
 20
0
 30
1
  3
39
  0
ARC
  5
131
330
12F
100
AcDbEntity
  8
Plywoodparts
 62
7
100
AcDbCircle
 10
-0.98425196850392815
 20
-6.0268051139140832E-17
 30
0
 40
0.984251968503937
100
AcDbArc
 50
3.5083546492674368E-15
 51
90.000000000000014
  0
LINE
  5
132
330
12F
100
AcDbEntity
  8
Plywoodparts
 62
7
100
AcDbLine
 10
-0.98425196850392838
 20
0.98425196850394592
 30
0
 11
-10.43307086614174
 21
0.98425196850394536
 31
0
  0
ARC
  5
133
330
12F
100
AcDbEntity
  8
Plywoodparts
 62
7
100
AcDbCircle
 10
-10.43307086614174
 20
-6.3884134207489913E-16
 30
0
 40
0.984251968503937
100
AcDbArc
 50
90
 51
180
  0
LINE
  5
134
330
12F
100
AcDbEntity
  8
Plywoodparts
 62
7
100
AcDbLine
 10
-11.417322834645674
 20
-6.9910939321404055E-16
 30
0
 11
-11.417322834645674
 21
-3.9370078740157486
 31
0
  0
ARC
  5
135
330
12F
100
AcDbEntity
  8
Plywoodparts
 62
7
100
AcDbCircle
 10
-10.43307086614174
 20
-3.937007874015749
 30
0
 40
0.984251968503933
100
AcDbArc
 50
179.99999999999997
 51
270.00000000000011
  0
LINE
  5
136
330
12F
100
AcDbEntity
  8
Plywoodparts
 62
7
100
AcDbLine
 10
-10.433070866141739
 20
-4.9212598425196843
 30
0
 11
-0.9842519685039457
 21
-4.9212598425196843
 31
0
  0
ARC
  5
137
330
12F
100
AcDbEntity
  8
Plywoodparts
 62
7
100
AcDbCircle
 10
-0.98425196850394558
 20
-3.9370078740157481
 30
0
 40
0.98425196850392915
100
AcDbArc
 50
270
 51
0
  0
LINE
  5
138
330
12F
100
AcDbEntity
  8
Plywoodparts
 62
7
100
AcDbLine
 10
2.4107220455656559E-16
 20
-3.9370078740157481
 30
0
 11
0
 21
0
 31
0
  0
LINE
  5
139
330
12F
100
AcDbEntity
  8
Plywoodparts
 62
7
100
AcDbLine
 10
-8.1049977595354257
 20
-0.59146499856692636
 30
0
 11
-8.3375047608346371
 21
-0.58816116889763359
 31
0
  0
LINE
  5
13A
330
12F
100
AcDbEntity
  8
Plywoodparts
 62
7
100
AcDbLine
 10
-8.3375047608346371
 20
-0.58816116889763359
 30
0
 11
-8.3766719213818988
 21
-3.3445499522401572
 31
0
  0
LINE
  5
13B
330
12F
100
AcDbEntity
  8
Plywoodparts
 62
7
100
AcDbLine
 10
-8.3766719213818988
 20
-3.3445499522401572
 30
0
 11
-8.1441649200826873
 21
-3.3478537819133893
 31
0
  0
LINE
  5
13C
330
12F
100
AcDbEntity
  8
Plywoodparts
 62
7
100
AcDbLine
 10
-8.1441649200826873
 20
-3.3478537819133893
 30
0
 11
-8.1049977595354257
 21
-0.59146499856692636
 31
0
  0
LINE
  5
13D
330
12F
100
AcDbEntity
  8
Plywoodparts
 62
7
100
AcDbLine
 10
-2.16535433070867
 20
-4.05511811023622
 30
0
 11
-1.1811023622047328
 21
-4.05511811023622
 31
0
  0
LINE
  5
13E
330
12F
100
AcDbEntity
  8
Plywoodparts
 62
7
100
AcDbLine
 10
-1.1811023622047328
 20
-4.05511811023622
 30
0
 11
-1.1811023622047328
 21
-3.818897637795275
 31
0
  0
LINE
  5
13F
330
12F
100
AcDbEntity
  8
Plywoodparts
 62
7
100
AcDbLine
 10
-1.1811023622047328
 20
-3.818897637795275
 30
0
 11
-2.16535433070867
 21
-3.8188976377952755
 31
0
  0
LINE
  5
140
330
12F
100
AcDbEntity
  8
Plywoodparts
 62
7
100
AcDbLine
 10
-2.16535433070867
 20
-3.8188976377952755
 30
0
 11
-2.16535433070867
 21
-4.05511811023622
 31
0
  0
LINE
  5
141
330
12F
100
AcDbEntity
  8
Plywoodparts
 62
7
100
AcDbLine
 10
-2.1653543307086522
 20
-0.11811023622047236
 30
0
 11
-1.1811023622047152
 21
-0.11811023622047231
 31
0
  0
LINE
  5
142
330
12F
100
AcDbEntity
  8
Plywoodparts
 62
7
100
AcDbLine
 10
-1.1811023622047152
 20
-0.11811023622047231
 30
0
 11
-1.1811023622047152
 21
0.11811023622047259
 31
0
  0
LINE
  5
143
330
12F
100
AcDbEntity
  8
Plywoodparts
 62
7
100
AcDbLine
 10
-1.1811023622047152
 20
0.11811023622047259
 30
0
 11
-2.1653543307086522
 21
0.11811023622047255
 31
0
  0
LINE
  5
144
330
12F
100
AcDbEntity
  8
Plywoodparts
 62
7
100
AcDbLine
 10
-2.1653543307086522
 20
0.11811023622047255
 30
0
 11
-2.1653543307086522
 21
-0.11811023622047236
 31
0
  0
ENDBLK
  5
145
330
12F
100
AcDbEntity
  8
0
100
AcDbBlockEnd
  0
BLOCK
  5
147
330
146
100
AcDbEntity
  8
0
100
AcDbBlockBegin
  2
2
 70
64
 10
0
 20
0
 30
1
  3
2
  0
LINE
  5
148
330
146
100
AcDbEntity
  8
Plywoodparts
 62
7
100
AcDbLine
 10
0
 20
0
 30
0
 11
-0.014897031521761389
 21
0.089951003035512775
 31
0
  0
LINE
  5
149
330
146
100
AcDbEntity
  8
Plywoodparts
 62
7
100
AcDbLine
 10
-0.014897031521761389
 20
0.089951003035512775
 30
0
 11
-1.7537401258091594
 21
-0.25387631498810392
 31
0
  0
LINE
  5
14A
330
146
100
AcDbEntity
  8
Plywoodparts
 62
7
100
AcDbLine
 10
-1.7537401258091594
 20
-0.25387631498810392
 30
0
 11
-1.6803742617658455
 21
-2.0375112700707838
 31
0
  0
LINE
  5
14B
330
146
100
AcDbEntity
  8
Plywoodparts
 62
7
100
AcDbLine
 10
-1.6803742617658455
 20
-2.0375112700707838
 30
0
 11
-1.5908839130603356
 21
-2.022690528769727
 31
0
  0
ARC
  5
14C
330
146
100
AcDbEntity
  8
Plywoodparts
 62
7
100
AcDbCircle
 10
1.2553492660491035
 20
-2.6243308984408724
 30
0
 40
2.9091260619439412
100
AcDbArc
 50
115.5641314940998
 51
168.0644440146
  0
ENDBLK
  5
14D
330
146
100
AcDbEntity
  8
0
100
AcDbBlockEnd
  0
BLOCK
  5
14F
330
14E
100
AcDbEntity
  8
0
100
AcDbBlockBegin
  2
54
 70
64
 10
0
 20
0
 30
1
  3
54
  0
LINE
  5
150
330
14E
100
AcDbEntity
  8
Plywoodparts
 62
7
100
AcDbLine
 10
0
 20
0
 30
0
 11
-1.9717567138818914
 21
-0.31712837126771753
 31
0
  0
LINE
  5
151
330
14E
100
AcDbEntity
  8
Plywoodparts
 62
7
100
AcDbLine
 10
-1.9717567138818914
 20
-0.31712837126771753
 30
0
 11
-3.3215613448622068
 21
-5.1492016682086632
 31
0
  0
LINE
  5
152
330
14E
100
AcDbEntity
  8
Plywoodparts
 62
7
100
AcDbLine
 10
-3.3215613448622068
 20
-5.1492016682086632
 30
0
 11
1.984601274992124
 21
-9.09531084091732
 31
0
  0
LINE
  5
153
330
14E
100
AcDbEntity
  8
Plywoodparts
 62
7
100
AcDbLine
 10
1.984601274992124
 20
-9.09531084091732
 30
0
 11
12.315490615086612
 21
-9.0953108409173211
 31
0
  0
LINE
  5
154
330
14E
100
AcDbEntity
  8
Plywoodparts
 62
7
100
AcDbLine
 10
12.315490615086612
 20
-9.0953108409173211
 30
0
 11
17.62165319194488
 21
-5.1492017067086628
 31
0
  0
LINE
  5
155
330
14E
100
AcDbEntity
  8
Plywoodparts
 62
7
100
AcDbLine
 10
17.62165319194488
 20
-5.1492017067086628
 30
0
 11
16.271848578728346
 21
-0.3171284048031493
 31
0
  0
LINE
  5
156
330
14E
100
AcDbEntity
  8
Plywoodparts
 62
7
100
AcDbLine
 10
16.271848578728346
 20
-0.3171284048031493
 30
0
 11
14.285195506625986
 21
0.0024028748464548231
 31
0
  0
ARC
  5
157
330
14E
100
AcDbEntity
  8
Plywoodparts
 62
7
100
AcDbCircle
 10
7.1500757552606782
 20
-44.455845494986939
 30
0
 40
45.027167154731494
100
AcDbArc
 50
80.882331583008252
 51
99.136943559013829
  0
ARC
  5
158
330
14E
100
AcDbEntity
  8
Plywoodparts
 62
7
100
AcDbCircle
 10
6.5982153449737595
 20
-0.13277748641685347
 30
0
 40
0.097427946686951969
100
AcDbArc
 50
270.77020860058735
 51
263.69372497671191
  0
LINE
  5
159
330
14E
100
AcDbEntity
  8
Plywoodparts
 62
7
100
AcDbLine
 10
6.5875135505746591
 20
-0.22961588991606438
 30
0
 11
6.5995249978507218
 21
-0.23019663035161483
 31
0
  0
ARC
  5
15A
330
14E
100
AcDbEntity
  8
Plywoodparts
 62
7
100
AcDbCircle
 10
6.5982153293030992
 20
-8.6583699541115831
 30
0
 40
0.097427946685926775
100
AcDbArc
 50
270.77020863113967
 51
263.6937250072923
  0
LINE
  5
15B
330
14E
100
AcDbEntity
  8
Plywoodparts
 62
7
100
AcDbLine
 10
6.5875135349557974
 20
-8.7552083576154818
 30
0
 11
6.599524982231995
 21
-8.7557890980445965
 31
0
  0
ARC
  5
15C
330
14E
100
AcDbEntity
  8
Plywoodparts
 62
7
100
AcDbCircle
 10
7.7018822607090245
 20
-8.6583687260507141
 30
0
 40
0.097429288623672047
100
AcDbArc
 50
269.2264160383325
 51
262.25258037443336
  0
LINE
  5
15D
330
14E
100
AcDbEntity
  8
Plywoodparts
 62
7
100
AcDbLine
 10
7.6887481782650093
 20
-8.7549086771594027
 30
0
 11
7.70056685064142
 21
-8.755789134477638
 31
0
  0
ARC
  5
15E
330
14E
100
AcDbEntity
  8
Plywoodparts
 62
7
100
AcDbCircle
 10
7.7018822763827721
 20
-0.13277625836185164
 30
0
 40
0.097429288618819679
100
AcDbArc
 50
269.22641609280777
 51
262.25258042852852
  0
LINE
  5
15F
330
14E
100
AcDbEntity
  8
Plywoodparts
 62
7
100
AcDbLine
 10
7.6887481940305555
 20
-0.22931620947815196
 30
0
 11
7.7005668664078577
 21
-0.2301966667851571
 31
0
  0
ARC
  5
160
330
14E
100
AcDbEntity
  8
Plywoodparts
 62
7
100
AcDbCircle
 10
5.4522941595888641
 20
-4.4751984677721266
 30
0
 40
0.1976224270999134
100
AcDbArc
 50
0.22370198291122781
 51
89.877645242543835
  0
LINE
  5
161
330
14E
100
AcDbEntity
  8
Plywoodparts
 62
7
100
AcDbLine
 10
5.45271618065155
 20
-4.2775764912839778
 30
0
 11
3.4786292681574769
 21
-4.2775764876535458
 31
0
  0
ARC
  5
162
330
14E
100
AcDbEntity
  8
Plywoodparts
 62
7
100
AcDbCircle
 10
3.4793035510071033
 20
-4.4759469698972847
 30
0
 40
0.19837162822081261
100
AcDbArc
 50
90.194753837646346
 51
179.56094764214174
  0
LINE
  5
163
330
14E
100
AcDbEntity
  8
Plywoodparts
 62
7
100
AcDbLine
 10
3.2809377469664374
 20
-4.4744268809925227
 30
0
 11
3.280937743346457
 21
-6.4429308180000024
 31
0
  0
ARC
  5
164
330
14E
100
AcDbEntity
  8
Plywoodparts
 62
7
100
AcDbCircle
 10
3.4779826959287385
 20
-6.4427372251827233
 30
0
 40
0.19704504768284176
100
AcDbArc
 50
180.05629196617244
 51
270.18800613366977
  0
LINE
  5
165
330
14E
100
AcDbEntity
  8
Plywoodparts
 62
7
100
AcDbLine
 10
3.4786292638157521
 20
-6.6397812120645927
 30
0
 11
5.4527161763110223
 21
-6.6397812156929179
 31
0
  0
ARC
  5
166
330
14E
100
AcDbEntity
  8
Plywoodparts
 62
7
100
AcDbCircle
 10
5.4519940344578588
 20
-6.4418585863478919
 30
0
 40
0.19792394674647834
100
AcDbArc
 50
270.20904884364239
 51
359.68960350997656
  0
LINE
  5
167
330
14E
100
AcDbEntity
  8
Plywoodparts
 62
7
100
AcDbLine
 10
5.6499150768097239
 20
-6.4429308223551311
 30
0
 11
5.6499150804282907
 21
-4.4744268853472464
 31
0
  0
ENDBLK
  5
168
330
14E
100
AcDbEntity
  8
0
100
AcDbBlockEnd
  0
BLOCK
  5
16A
330
169
100
AcDbEntity
  8
0
100
AcDbBlockBegin
  2
17
 70
64
 10
0
 20
0
 30
1
  3
17
  0
LINE
  5
16B
330
169
100
AcDbEntity
  8
Plywoodparts
 62
7
100
AcDbLine
 10
0
 20
0
 30
0
 11
-0.80684587839373445
 21
9.4038971755214078
 31
0
  0
LINE
  5
16C
330
169
100
AcDbEntity
  8
Plywoodparts
 62
7
100
AcDbLine
 10
-0.80684587839373445
 20
9.4038971755214078
 30
0
 11
-1.45979811774371
 21
9.415674420793863
 31
0
  0
LINE
  5
16D
330
169
100
AcDbEntity
  8
Plywoodparts
 62
7
100
AcDbLine
 10
-1.45979811774371
 20
9.415674420793863
 30
0
 11
-0.64275717789608322
 21
0.01931253472991297
 31
0
  0
ARC
  5
16E
330
169
100
AcDbEntity
  8
Plywoodparts
 62
7
100
AcDbCircle
 10
8.0223596072846348
 20
0.91691733738553494
 30
0
 40
8.71148341458382
100
AcDbArc
 50
185.91407940472919
 51
245.1709050510556
  0
LINE
  5
16F
330
169
100
AcDbEntity
  8
Plywoodparts
 62
7
100
AcDbLine
 10
4.3642944708295071
 20
-6.9893145552431966
 30
0
 11
7.1098141882090564
 21
-7.1351264100762242
 31
0
  0
ARC
  5
170
330
169
100
AcDbEntity
  8
Plywoodparts
 62
7
100
AcDbCircle
 10
11.430830094233833
 20
3.8264095334908252
 30
0
 40
11.782463609204685
100
AcDbArc
 50
245.02564652635269
 51
248.48573866600628
  0
ARC
  5
171
330
169
100
AcDbEntity
  8
Plywoodparts
 62
7
100
AcDbCircle
 10
10.670776776509815
 20
2.4100752508698315
 30
0
 40
10.178063718080511
100
AcDbArc
 50
219.01384511833544
 51
245.53787742128017
  0
LINE
  5
172
330
169
100
AcDbEntity
  8
Plywoodparts
 62
7
100
AcDbLine
 10
2.762483679807449
 20
-3.9970989582459846
 30
0
 11
0.42154920899645276
 21
-1.0581707914738416
 31
0
  0
ARC
  5
173
330
169
100
AcDbEntity
  8
Plywoodparts
 62
7
100
AcDbCircle
 10
1.9612979328869926
 20
0.16828002991852756
 30
0
 40
1.9685039370080393
100
AcDbArc
 50
184.90398701771503
 51
218.53825433862068
  0
ENDBLK
  5
174
330
169
100
AcDbEntity
  8
0
100
AcDbBlockEnd
  0
BLOCK
  5
176
330
175
100
AcDbEntity
  8
0
100
AcDbBlockBegin
  2
38
 70
64
 10
0
 20
0
 30
1
  3
38
  0
ARC
  5
177
330
175
100
AcDbEntity
  8
Plywoodparts
 62
7
100
AcDbCircle
 10
0
 20
0.98425196850394769
 30
0
 40
0.984251968503937
100
AcDbArc
 50
270
 51
0
  0
LINE
  5
178
330
175
100
AcDbEntity
  8
Plywoodparts
 62
7
100
AcDbLine
 10
0.98425196850393348
 20
0.98425196850394769
 30
0
 11
0.98425196850393348
 21
4.9212598425196958
 31
0
  0
ARC
  5
179
330
175
100
AcDbEntity
  8
Plywoodparts
 62
7
100
AcDbCircle
 10
0
 20
4.9212598425196958
 30
0
 40
0.984251968503937
100
AcDbArc
 50
0
 51
90
  0
LINE
  5
17A
330
175
100
AcDbEntity
  8
Plywoodparts
 62
7
100
AcDbLine
 10
0
 20
5.9055118110236329
 30
0
 11
-9.4488188976377927
 21
5.9055118110236329
 31
0
  0
ARC
  5
17B
330
175
100
AcDbEntity
  8
Plywoodparts
 62
7
100
AcDbCircle
 10
-9.4488188976377927
 20
4.9212598425196958
 30
0
 40
0.984251968503937
100
AcDbArc
 50
90
 51
180
  0
LINE
  5
17C
330
175
100
AcDbEntity
  8
Plywoodparts
 62
7
100
AcDbLine
 10
-10.433070866141733
 20
4.9212598425196958
 30
0
 11
-10.433070866141733
 21
0.98425196850394769
 31
0
  0
ARC
  5
17D
330
175
100
AcDbEntity
  8
Plywoodparts
 62
7
100
AcDbCircle
 10
-9.4488188976377927
 20
0.98425196850394769
 30
0
 40
0.98425196850395669
100
AcDbArc
 50
180
 51
270
  0
LINE
  5
17E
330
175
100
AcDbEntity
  8
Plywoodparts
 62
7
100
AcDbLine
 10
-9.4488188976377927
 20
0
 30
0
 11
0
 21
0
 31
0
  0
LINE
  5
17F
330
175
100
AcDbEntity
  8
Plywoodparts
 62
7
100
AcDbLine
 10
-7.0087209673897632
 20
4.3342541268543417
 30
0
 11
-7.2412279686889747
 21
4.33095029718111
 31
0
  0
LINE
  5
180
330
175
100
AcDbEntity
  8
Plywoodparts
 62
7
100
AcDbLine
 10
-7.2412279686889747
 20
4.33095029718111
 30
0
 11
-7.2020608081417379
 21
1.574561513838594
 31
0
  0
LINE
  5
181
330
175
100
AcDbEntity
  8
Plywoodparts
 62
7
100
AcDbLine
 10
-7.2020608081417379
 20
1.574561513838594
 30
0
 11
-6.9695538068425194
 21
1.5778653435118173
 31
0
  0
LINE
  5
182
330
175
100
AcDbEntity
  8
Plywoodparts
 62
7
100
AcDbLine
 10
-6.9695538068425194
 20
1.5778653435118173
 30
0
 11
-7.0087209673897632
 21
4.3342541268543417
 31
0
  0
LINE
  5
183
330
175
100
AcDbEntity
  8
Plywoodparts
 62
7
100
AcDbLine
 10
-0.19685039370078528
 20
1.10236220472442
 30
0
 11
-1.1811023622047259
 21
1.10236220472442
 31
0
  0
LINE
  5
184
330
175
100
AcDbEntity
  8
Plywoodparts
 62
7
100
AcDbLine
 10
-1.1811023622047259
 20
1.10236220472442
 30
0
 11
-1.1811023622047259
 21
0.86614173228347546
 31
0
  0
LINE
  5
185
330
175
100
AcDbEntity
  8
Plywoodparts
 62
7
100
AcDbLine
 10
-1.1811023622047259
 20
0.86614173228347546
 30
0
 11
-0.19685039370078528
 21
0.86614173228347546
 31
0
  0
LINE
  5
186
330
175
100
AcDbEntity
  8
Plywoodparts
 62
7
100
AcDbLine
 10
-0.19685039370078528
 20
0.86614173228347546
 30
0
 11
-0.19685039370078528
 21
1.10236220472442
 31
0
  0
LINE
  5
187
330
175
100
AcDbEntity
  8
Plywoodparts
 62
7
100
AcDbLine
 10
-0.19685039370078528
 20
5.0393700787401681
 30
0
 11
-1.1811023622047259
 21
5.0393700787401681
 31
0
  0
LINE
  5
188
330
175
100
AcDbEntity
  8
Plywoodparts
 62
7
100
AcDbLine
 10
-1.1811023622047259
 20
5.0393700787401681
 30
0
 11
-1.1811023622047259
 21
4.8031496062992236
 31
0
  0
LINE
  5
189
330
175
100
AcDbEntity
  8
Plywoodparts
 62
7
100
AcDbLine
 10
-1.1811023622047259
 20
4.8031496062992236
 30
0
 11
-0.19685039370078528
 21
4.8031496062992236
 31
0
  0
LINE
  5
18A
330
175
100
AcDbEntity
  8
Plywoodparts
 62
7
100
AcDbLine
 10
-0.19685039370078528
 20
4.8031496062992236
 30
0
 11
-0.19685039370078528
 21
5.0393700787401681
 31
0
  0
ENDBLK
  5
18B
330
175
100
AcDbEntity
  8
0
100
AcDbBlockEnd
  0
BLOCK
  5
18D
330
18C
100
AcDbEntity
  8
0
100
AcDbBlockBegin
  2
41
 70
64
 10
0
 20
0
 30
1
  3
41
  0
LINE
  5
18E
330
18C
100
AcDbEntity
  8
Plywoodparts
 62
7
100
AcDbLine
 10
0
 20
0
 30
0
 11
-1.2700651493779565
 21
-0.93109584702361925
 31
0
  0
LINE
  5
18F
330
18C
100
AcDbEntity
  8
Plywoodparts
 62
7
100
AcDbLine
 10
-1.2700651493779565
 20
-0.93109584702361925
 30
0
 11
-0.30942567667716669
 21
-2.1788603900039316
 31
0
  0
LINE
  5
190
330
18C
100
AcDbEntity
  8
Plywoodparts
 62
7
100
AcDbLine
 10
-0.30942567667716669
 20
-2.1788603900039316
 30
0
 11
-2.1811707634566919
 21
-3.6198952577755943
 31
0
  0
ARC
  5
191
330
18C
100
AcDbEntity
  8
Plywoodparts
 62
7
100
AcDbCircle
 10
-1.9409982854941077
 20
-3.931852772238591
 30
0
 40
0.39370078740157005
100
AcDbArc
 50
127.59225746176712
 51
217.59225746116081
  0
LINE
  5
192
330
18C
100
AcDbEntity
  8
Plywoodparts
 62
7
100
AcDbLine
 10
-2.25295579995984
 20
-4.1720252501980237
 30
0
 11
-1.0516288465157579
 21
-5.7324162393582689
 31
0
  0
ARC
  5
193
330
18C
100
AcDbEntity
  8
Plywoodparts
 62
7
100
AcDbCircle
 10
-0.73967133205118518
 20
-5.4922437613976376
 30
0
 40
0.39370078740158271
100
AcDbArc
 50
217.59225746140197
 51
307.59225746161121
  0
LINE
  5
194
330
18C
100
AcDbEntity
  8
Plywoodparts
 62
7
100
AcDbLine
 10
-0.4994988540893659
 20
-5.8042012758613968
 30
0
 11
1.3722462326929084
 21
-4.3631664080905548
 31
0
  0
LINE
  5
195
330
18C
100
AcDbEntity
  8
Plywoodparts
 62
7
100
AcDbLine
 10
1.3722462326929084
 20
-4.3631664080905548
 30
0
 11
2.3328857053976395
 21
-5.6109309510708494
 31
0
  0
LINE
  5
196
330
18C
100
AcDbEntity
  8
Plywoodparts
 62
7
100
AcDbLine
 10
2.3328857053976395
 20
-5.6109309510708494
 30
0
 11
3.6153094258464549
 21
-4.6707749277244117
 31
0
  0
ARC
  5
197
330
18C
100
AcDbEntity
  8
Plywoodparts
 62
7
100
AcDbCircle
 10
3.9644703684822664
 20
-5.1470493587401549
 30
0
 40
0.59055118110236615
100
AcDbArc
 50
96.098752980692481
 51
126.24546833844451
  0
LINE
  5
198
330
18C
100
AcDbEntity
  8
Plywoodparts
 62
7
100
AcDbLine
 10
3.9017287759917196
 20
-4.5598405457330795
 30
0
 11
7.1930212867440808
 21
-4.2081752966850363
 31
0
  0
ARC
  5
199
330
18C
100
AcDbEntity
  8
Plywoodparts
 62
7
100
AcDbCircle
 10
7.1093658300921376
 20
-3.4252302126755962
 30
0
 40
0.78740157480314177
100
AcDbArc
 50
276.09875298053908
 51
37.592257461793345
  0
LINE
  5
19A
330
18C
100
AcDbEntity
  8
Plywoodparts
 62
7
100
AcDbLine
 10
7.733280859018107
 20
-2.9448852567499912
 30
0
 11
2.688265130913376
 21
3.6080327975078816
 31
0
  0
ARC
  5
19B
330
18C
100
AcDbEntity
  8
Plywoodparts
 62
7
100
AcDbCircle
 10
2.0643501019854269
 20
3.1276878415854412
 30
0
 40
0.78740157480316131
100
AcDbArc
 50
37.592257461523005
 51
160.29103474960985
  0
LINE
  5
19C
330
18C
100
AcDbEntity
  8
Plywoodparts
 62
7
100
AcDbLine
 10
1.3230762540055152
 20
3.3932331716216675
 30
0
 11
0.20679444335039293
 21
0.27711543348820178
 31
0
  0
ARC
  5
19D
330
18C
100
AcDbEntity
  8
Plywoodparts
 62
7
100
AcDbCircle
 10
-0.34916094263386666
 20
0.47627443101693273
 30
0
 40
0.59055118110237792
100
AcDbArc
 50
306.2454683382241
 51
340.29103474944515
  0
CIRCLE
  5
19E
330
18C
100
AcDbEntity
  8
Plywoodparts
 62
7
100
AcDbCircle
 10
2.0643501019842327
 20
3.1276878415826768
 30
0
 40
0.19685039370079766
  0
CIRCLE
  5
19F
330
18C
100
AcDbEntity
  8
Plywoodparts
 62
7
100
AcDbCircle
 10
7.109365830090554
 20
-3.4252302126732292
 30
0
 40
0.19685039370077243
  0
ARC
  5
1A0
330
18C
100
AcDbEntity
  8
Plywoodparts
 62
7
100
AcDbCircle
 10
-0.74767321147007459
 20
-3.4972849018043197
 30
0
 40
1.1014513848791576
100
AcDbArc
 50
309.41968485513394
 51
337.1167463018607
  0
ARC
  5
1A1
330
18C
100
AcDbEntity
  8
Plywoodparts
 62
7
100
AcDbCircle
 10
-0.12264598785550862
 20
-3.746966608196062
 30
0
 40
0.42872200882103145
100
AcDbArc
 50
335.3773485534839
 51
28.926245809665595
  0
ARC
  5
1A2
330
18C
100
AcDbEntity
  8
Plywoodparts
 62
7
100
AcDbCircle
 10
-0.06137181808504466
 20
-3.7689397388677044
 30
0
 40
0.38880368647581576
100
AcDbArc
 50
36.146908047932925
 51
93.425425151637
  0
ARC
  5
1A3
330
18C
100
AcDbEntity
  8
Plywoodparts
 62
7
100
AcDbCircle
 10
-0.058183570340568647
 20
-4.3818620947602351
 30
0
 40
1.0013799722932126
100
AcDbArc
 50
91.51178726545443
 51
124.95464694437642
  0
ARC
  5
1A4
330
18C
100
AcDbEntity
  8
Plywoodparts
 62
7
100
AcDbCircle
 10
0.0675151364137685
 20
-4.4120134728429141
 30
0
 40
1.1014513848720235
100
AcDbArc
 50
129.41968485511268
 51
157.11674630205854
  0
ARC
  5
1A5
330
18C
100
AcDbEntity
  8
Plywoodparts
 62
7
100
AcDbCircle
 10
-0.5575120871925221
 20
-4.1623317664570756
 30
0
 40
0.42872200882369293
100
AcDbArc
 50
155.37734855370641
 51
208.9262458095086
  0
ARC
  5
1A6
330
18C
100
AcDbEntity
  8
Plywoodparts
 62
7
100
AcDbCircle
 10
-0.618786256961418
 20
-4.1403586357755859
 30
0
 40
0.38880368648552321
100
AcDbArc
 50
216.14690804874164
 51
273.42542515085307
  0
ARC
  5
1A7
330
18C
100
AcDbEntity
  8
Plywoodparts
 62
7
100
AcDbCircle
 10
-0.62197450471339
 20
-3.5274362798905505
 30
0
 40
1.001379972296256
100
AcDbArc
 50
271.51178726560926
 51
304.95464694443706
  0
LINE
  5
1A8
330
18C
100
AcDbEntity
  8
Plywoodparts
 62
7
100
AcDbLine
 10
3.866204178637791
 20
1.5054658796102416
 30
0
 11
3.7290677203503786
 21
1.6925274339488265
 31
0
  0
LINE
  5
1A9
330
18C
100
AcDbEntity
  8
Plywoodparts
 62
7
100
AcDbLine
 10
3.7290677203503786
 20
1.6925274339488265
 30
0
 11
2.93527700198819
 21
1.1105925295590553
 31
0
  0
LINE
  5
1AA
330
18C
100
AcDbEntity
  8
Plywoodparts
 62
7
100
AcDbLine
 10
2.93527700198819
 20
1.1105925295590553
 30
0
 11
3.0724134602755906
 21
0.923530975220483
 31
0
  0
LINE
  5
1AB
330
18C
100
AcDbEntity
  8
Plywoodparts
 62
7
100
AcDbLine
 10
3.0724134602755906
 20
0.923530975220483
 30
0
 11
3.866204178637791
 21
1.5054658796102416
 31
0
  0
LINE
  5
1AC
330
18C
100
AcDbEntity
  8
Plywoodparts
 62
7
100
AcDbLine
 10
6.2327563045590484
 20
-1.6406867449527596
 30
0
 11
6.0956198462716467
 21
-1.4536251906141668
 31
0
  0
LINE
  5
1AD
330
18C
100
AcDbEntity
  8
Plywoodparts
 62
7
100
AcDbLine
 10
6.0956198462716467
 20
-1.4536251906141668
 30
0
 11
5.3018291279094472
 21
-2.0355600950039472
 31
0
  0
LINE
  5
1AE
330
18C
100
AcDbEntity
  8
Plywoodparts
 62
7
100
AcDbLine
 10
5.3018291279094472
 20
-2.0355600950039472
 30
0
 11
5.4389655861968365
 21
-2.2226216493425288
 31
0
  0
LINE
  5
1AF
330
18C
100
AcDbEntity
  8
Plywoodparts
 62
7
100
AcDbLine
 10
5.4389655861968365
 20
-2.2226216493425288
 30
0
 11
6.2327563045590484
 21
-1.6406867449527596
 31
0
  0
ENDBLK
  5
1B0
330
18C
100
AcDbEntity
  8
0
100
AcDbBlockEnd
  0
BLOCK
  5
1B2
330
1B1
100
AcDbEntity
  8
0
100
AcDbBlockBegin
  2
57
 70
64
 10
0
 20
0
 30
1
  3
57
  0
LINE
  5
1B3
330
1B1
100
AcDbEntity
  8
Plywoodparts
 62
7
100
AcDbLine
 10
0
 20
0
 30
0
 11
-2.3409343212283353
 21
2.9389279789763805
 31
0
  0
ARC
  5
1B4
330
1B1
100
AcDbEntity
  8
Plywoodparts
 62
7
100
AcDbCircle
 10
-0.80118559734134132
 20
4.1653788003728316
 30
0
 40
1.9685039370079527
100
AcDbArc
 50
202.09732133372484
 51
218.5382543387779
  0
LINE
  5
1B5
330
1B1
100
AcDbEntity
  8
Plywoodparts
 62
7
100
AcDbLine
 10
-2.6250954771153481
 20
3.4248651269825956
 30
0
 11
-2.6677757157405697
 21
3.4122550564797791
 31
0
  0
ARC
  5
1B6
330
1B1
100
AcDbEntity
  8
Plywoodparts
 62
7
100
AcDbCircle
 10
5.8109766093850244
 20
5.1105301262065623
 30
0
 40
8.6471601814282675
100
AcDbArc
 50
191.32633557095491
 51
211.39002320340975
  0
ARC
  5
1B7
330
1B1
100
AcDbEntity
  8
Plywoodparts
 62
7
100
AcDbCircle
 10
6.3303268432767741
 20
5.4991449595547088
 30
0
 40
9.2931151137417718
100
AcDbArc
 50
211.76752400155328
 51
246.89836021283074
  0
LINE
  5
1B8
330
1B1
100
AcDbEntity
  8
Plywoodparts
 62
7
100
AcDbLine
 10
2.6840482155090477
 20
-3.0487577473050003
 30
0
 11
4.3473306579842639
 21
-3.138027639625999
 31
0
  0
ARC
  5
1B9
330
1B1
100
AcDbEntity
  8
Plywoodparts
 62
7
100
AcDbCircle
 10
8.66834656400904
 20
7.8235083039410513
 30
0
 40
11.782463609204685
100
AcDbArc
 50
245.02564652635269
 51
248.48573866600628
  0
ARC
  5
1BA
330
1B1
100
AcDbEntity
  8
Plywoodparts
 62
7
100
AcDbCircle
 10
7.9082932503496064
 20
6.407174019470987
 30
0
 40
10.178063718080511
100
AcDbArc
 50
219.01384374435398
 51
245.53787739614285
  0
ENDBLK
  5
1BB
330
1B1
100
AcDbEntity
  8
0
100
AcDbBlockEnd
  0
BLOCK
  5
1BD
330
1BC
100
AcDbEntity
  8
0
100
AcDbBlockBegin
  2
30
 70
64
 10
0
 20
0
 30
1
  3
30
  0
LINE
  5
1BE
330
1BC
100
AcDbEntity
  8
Plywoodparts
 62
7
100
AcDbLine
 10
0
 20
0
 30
0
 11
0.00017413041733513787
 21
-0.717852019755906
 31
0
  0
LINE
  5
1BF
330
1BC
100
AcDbEntity
  8
Plywoodparts
 62
7
100
AcDbLine
 10
0.00017413041733513787
 20
-0.717852019755906
 30
0
 11
-0.47225187322581508
 21
-0.79430140040944519
 31
0
  0
LINE
  5
1C0
330
1BC
100
AcDbEntity
  8
Plywoodparts
 62
7
100
AcDbLine
 10
-0.47225187322581508
 20
-0.79430140040944519
 30
0
 11
-0.47042115481219943
 21
-7.8707962112690062
 31
0
  0
LINE
  5
1C1
330
1BC
100
AcDbEntity
  8
Plywoodparts
 62
7
100
AcDbLine
 10
-0.47042115481219943
 20
-7.8707962112690062
 30
0
 11
1.5472459836466623
 21
-9.6879012943634351
 31
0
  0
ARC
  5
1C2
330
1BC
100
AcDbEntity
  8
Plywoodparts
 62
7
100
AcDbCircle
 10
4.6018308201771285
 20
-8.122583939043249
 30
0
 40
3.4323034461464093
100
AcDbArc
 50
127.94676706712873
 51
207.13280172320114
  0
LINE
  5
1C3
330
1BC
100
AcDbEntity
  8
Plywoodparts
 62
7
100
AcDbLine
 10
2.4912076306102482
 20
-5.4159297871259824
 30
0
 11
2.4912077642244133
 21
-5.2978195509055119
 31
0
  0
LINE
  5
1C4
330
1BC
100
AcDbEntity
  8
Plywoodparts
 62
7
100
AcDbLine
 10
2.4912077642244133
 20
-5.2978195509055119
 30
0
 11
2.9205035838110409
 21
-5.297820036555116
 31
0
  0
LINE
  5
1C5
330
1BC
100
AcDbEntity
  8
Plywoodparts
 62
7
100
AcDbLine
 10
2.9205035838110409
 20
-5.297820036555116
 30
0
 11
3.8772795299370131
 21
-0.96785642648424952
 31
0
  0
LINE
  5
1C6
330
1BC
100
AcDbEntity
  8
Plywoodparts
 62
7
100
AcDbLine
 10
3.8772795299370131
 20
-0.96785642648424952
 30
0
 11
3.6257127642323042
 21
0.58672362047244109
 31
0
  0
LINE
  5
1C7
330
1BC
100
AcDbEntity
  8
Plywoodparts
 62
7
100
AcDbLine
 10
3.6257127642323042
 20
0.58672362047244109
 30
0
 11
0
 21
0
 31
0
  0
CIRCLE
  5
1C8
330
1BC
100
AcDbEntity
  8
Plywoodparts
 62
7
100
AcDbCircle
 10
0.70791526481495792
 20
-4.1596330353385795
 30
0
 40
0.11811023622047125
  0
CIRCLE
  5
1C9
330
1BC
100
AcDbEntity
  8
Plywoodparts
 62
7
100
AcDbCircle
 10
1.6908185403149791
 20
-4.2111411755866079
 30
0
 40
0.11811023622046693
  0
CIRCLE
  5
1CA
330
1BC
100
AcDbEntity
  8
Plywoodparts
 62
7
100
AcDbCircle
 10
1.3603446062992219
 20
-0.13880508988582446
 30
0
 40
0.098425196850382285
  0
ENDBLK
  5
1CB
330
1BC
100
AcDbEntity
  8
0
100
AcDbBlockEnd
  0
BLOCK
  5
1CD
330
1CC
100
AcDbEntity
  8
0
100
AcDbBlockBegin
  2
34
 70
64
 10
0
 20
0
 30
1
  3
34
  0
LINE
  5
1CE
330
1CC
100
AcDbEntity
  8
Plywoodparts
 62
7
100
AcDbLine
 10
0
 20
0
 30
0
 11
0.050035481929133985
 21
2.3616747469921222
 31
0
  0
LINE
  5
1CF
330
1CC
100
AcDbEntity
  8
Plywoodparts
 62
7
100
AcDbLine
 10
0.050035481929133985
 20
2.3616747469921222
 30
0
 11
-1.5440693040629923
 21
2.3954481534724437
 31
0
  0
LINE
  5
1D0
330
1CC
100
AcDbEntity
  8
Plywoodparts
 62
7
100
AcDbLine
 10
-1.5440693040629923
 20
2.3954481534724437
 30
0
 11
-1.5941047859881889
 21
0.033773406484250756
 31
0
  0
LINE
  5
1D1
330
1CC
100
AcDbEntity
  8
Plywoodparts
 62
7
100
AcDbLine
 10
-1.5941047859881889
 20
0.033773406484250756
 30
0
 11
0
 21
0
 31
0
  0
ENDBLK
  5
1D2
330
1CC
100
AcDbEntity
  8
0
100
AcDbBlockEnd
  0
BLOCK
  5
1D4
330
1D3
100
AcDbEntity
  8
0
100
AcDbBlockBegin
  2
37
 70
64
 10
0
 20
0
 30
1
  3
37
  0
ARC
  5
1D5
330
1D3
100
AcDbEntity
  8
Plywoodparts
 62
7
100
AcDbCircle
 10
3.9782606083274392
 20
48.1429959566441
 30
0
 40
48.30708661417323
100
AcDbArc
 50
265.27613860157913
 51
268.36319046411791
  0
LINE
  5
1D6
330
1D3
100
AcDbEntity
  8
Plywoodparts
 62
7
100
AcDbLine
 10
2.5984251968503962
 20
-0.14437994416929173
 30
0
 11
2.5984251968503962
 21
1.4500825708149614
 31
0
  0
LINE
  5
1D7
330
1D3
100
AcDbEntity
  8
Plywoodparts
 62
7
100
AcDbLine
 10
2.5984251968503962
 20
1.4500825708149614
 30
0
 11
-8.8791948942395363E-17
 21
1.4500825708149612
 31
0
  0
LINE
  5
1D8
330
1D3
100
AcDbEntity
  8
Plywoodparts
 62
7
100
AcDbLine
 10
-8.8791948942395363E-17
 20
1.4500825708149612
 30
0
 11
0
 21
0
 31
0
  0
ENDBLK
  5
1D9
330
1D3
100
AcDbEntity
  8
0
100
AcDbBlockEnd
  0
BLOCK
  5
1DB
330
1DA
100
AcDbEntity
  8
0
100
AcDbBlockBegin
  2
56
 70
64
 10
0
 20
0
 30
1
  3
56
  0
LINE
  5
1DC
330
1DA
100
AcDbEntity
  8
Plywoodparts
 62
7
100
AcDbLine
 10
0
 20
0
 30
0
 11
-5.5511151231257827E-17
 21
-1.0826771653543421
 31
0
  0
ARC
  5
1DD
330
1DA
100
AcDbEntity
  8
Plywoodparts
 62
7
100
AcDbCircle
 10
1.7430501486614958E-14
 20
4.2322834645669287
 30
0
 40
5.31496062992126
100
AcDbArc
 50
269.99999999999977
 51
29.999999999999922
  0
LINE
  5
1DE
330
1DA
100
AcDbEntity
  8
Plywoodparts
 62
7
100
AcDbLine
 10
4.6028909256259869
 20
6.8897637795275593
 30
0
 11
3.6652649963317696
 21
6.3484251968503917
 31
0
  0
ARC
  5
1DF
330
1DA
100
AcDbEntity
  8
Plywoodparts
 62
7
100
AcDbCircle
 10
-7.7715611723760958E-16
 20
4.23228346456693
 30
0
 40
4.2322834645669287
100
AcDbArc
 50
270
 51
30.000000000000025
  0
ENDBLK
  5
1E0
330
1DA
100
AcDbEntity
  8
0
100
AcDbBlockEnd
  0
BLOCK
  5
1E2
330
1E1
100
AcDbEntity
  8
0
100
AcDbBlockBegin
  2
19
 70
64
 10
0
 20
0
 30
1
  3
19
  0
LINE
  5
1E3
330
1E1
100
AcDbEntity
  8
Plywoodparts
 62
7
100
AcDbLine
 10
0
 20
0
 30
0
 11
-2.1581553832165303
 21
2.7094580062283398
 31
0
  0
ARC
  5
1E4
330
1E1
100
AcDbEntity
  8
Plywoodparts
 62
7
100
AcDbCircle
 10
6.2435998068739957
 20
5.2822602636623737
 30
0
 40
8.7868539153710632
100
AcDbArc
 50
197.02574047687403
 51
216.75995701976888
  0
ARC
  5
1E5
330
1E1
100
AcDbEntity
  8
Plywoodparts
 62
7
100
AcDbCircle
 10
6.9129301186822714
 20
5.8699076116656066
 30
0
 40
9.6750283143045674
100
AcDbArc
 50
217.1758266277823
 51
247.63703513253878
  0
LINE
  5
1E6
330
1E1
100
AcDbEntity
  8
Plywoodparts
 62
7
100
AcDbLine
 10
3.2318461272515724
 20
-3.077482707898453
 30
0
 11
4.3473306579842568
 21
-3.1380276396259985
 31
0
  0
ARC
  5
1E7
330
1E1
100
AcDbEntity
  8
Plywoodparts
 62
7
100
AcDbCircle
 10
8.6683465640090223
 20
7.8235083039410691
 30
0
 40
11.782463609204685
100
AcDbArc
 50
245.02564652635275
 51
248.48573866600631
  0
ARC
  5
1E8
330
1E1
100
AcDbEntity
  8
Plywoodparts
 62
7
100
AcDbCircle
 10
7.9082932503496206
 20
6.4071740194709763
 30
0
 40
10.178063718080511
100
AcDbArc
 50
219.01384374435389
 51
245.53787739614268
  0
ENDBLK
  5
1E9
330
1E1
100
AcDbEntity
  8
0
100
AcDbBlockEnd
  0
BLOCK
  5
1EB
330
1EA
100
AcDbEntity
  8
0
100
AcDbBlockBegin
  2
55
 70
64
 10
0
 20
0
 30
1
  3
55
  0
CIRCLE
  5
1EC
330
1EA
100
AcDbEntity
  8
Plywoodparts
 62
7
100
AcDbCircle
 10
0
 20
0
 30
0
 40
1.496062992125992
  0
ARC
  5
1ED
330
1EA
100
AcDbEntity
  8
Plywoodparts
 62
7
100
AcDbCircle
 10
0.01482643739551115
 20
-0.056545709047320258
 30
0
 40
0.90527672958703942
100
AcDbArc
 50
301.75798643543931
 51
54.155262983795311
  0
ARC
  5
1EE
330
1EA
100
AcDbEntity
  8
Plywoodparts
 62
7
100
AcDbCircle
 10
0.01457482683555078
 20
-0.026265492898598808
 30
0
 40
0.88106129858553139
100
AcDbArc
 50
52.988811716873258
 51
199.0245169121261
  0
ARC
  5
1EF
330
1EA
100
AcDbEntity
  8
Plywoodparts
 62
7
100
AcDbCircle
 10
0.044207094843503825
 20
-0.039342916536014627
 30
0
 40
0.90508010942268113
100
AcDbArc
 50
197.63025678465283
 51
299.60283233416436
  0
ENDBLK
  5
1F0
330
1EA
100
AcDbEntity
  8
0
100
AcDbBlockEnd
  0
BLOCK
  5
1F2
330
1F1
100
AcDbEntity
  8
0
100
AcDbBlockBegin
  2
43
 70
64
 10
0
 20
0
 30
1
  3
43
  0
LINE
  5
1F3
330
1F1
100
AcDbEntity
  8
Plywoodparts
 62
7
100
AcDbLine
 10
0
 20
0
 30
0
 11
-0.77465095993306876
 21
-0.60499313913779029
 31
0
  0
LINE
  5
1F4
330
1F1
100
AcDbEntity
  8
Plywoodparts
 62
7
100
AcDbLine
 10
-0.77465095993306876
 20
-0.60499313913779029
 30
0
 11
-0.53232189288976062
 21
-0.91527838414173079
 31
0
  0
LINE
  5
1F5
330
1F1
100
AcDbEntity
  8
Plywoodparts
 62
7
100
AcDbLine
 10
-0.53232189288976062
 20
-0.91527838414173079
 30
0
 11
-3.9023137216732255
 21
-3.547201715838586
 31
0
  0
LINE
  5
1F6
330
1F1
100
AcDbEntity
  8
Plywoodparts
 62
7
100
AcDbLine
 10
-3.9023137216732255
 20
-3.547201715838586
 30
0
 11
1.7841017818976386
 21
-3.54720171583858
 31
0
  0
LINE
  5
1F7
330
1F1
100
AcDbEntity
  8
Plywoodparts
 62
7
100
AcDbLine
 10
1.7841017818976386
 20
-3.54720171583858
 30
0
 11
1.7841017818976384
 21
-3.9409025032401606
 31
0
  0
LINE
  5
1F8
330
1F1
100
AcDbEntity
  8
Plywoodparts
 62
7
100
AcDbLine
 10
1.7841017818976384
 20
-3.9409025032401606
 30
0
 11
2.7683537504015758
 21
-3.9409025032401552
 31
0
  0
LINE
  5
1F9
330
1F1
100
AcDbEntity
  8
Plywoodparts
 62
7
100
AcDbLine
 10
2.7683537504015758
 20
-3.9409025032401552
 30
0
 11
2.7683537504015754
 21
-3.5446813384251925
 31
0
  0
LINE
  5
1FA
330
1F1
100
AcDbEntity
  8
Plywoodparts
 62
7
100
AcDbLine
 10
2.7683537504015754
 20
-3.5446813384251925
 30
0
 11
0
 21
0
 31
0
  0
ENDBLK
  5
1FB
330
1F1
100
AcDbEntity
  8
0
100
AcDbBlockEnd
  0
BLOCK
  5
1FD
330
1FC
100
AcDbEntity
  8
0
100
AcDbBlockBegin
  2
20
 70
64
 10
0
 20
0
 30
1
  3
20
  0
LINE
  5
1FE
330
1FC
100
AcDbEntity
  8
Plywoodparts
 62
7
100
AcDbLine
 10
0
 20
0
 30
0
 11
-1.5175596732716763
 21
1.9052215788779641
 31
0
  0
ARC
  5
1FF
330
1FC
100
AcDbEntity
  8
Plywoodparts
 62
7
100
AcDbCircle
 10
6.7260527834015633
 20
5.4991390270339107
 30
0
 40
8.9929633024924
100
AcDbArc
 50
203.55546373880534
 51
220.52390503001422
  0
ARC
  5
200
330
1FC
100
AcDbEntity
  8
Plywoodparts
 62
7
100
AcDbCircle
 10
7.5166916133460866
 20
6.2810633581464552
 30
0
 40
10.10234459541311
100
AcDbArc
 50
220.98125302267624
 51
248.33720472612717
  0
LINE
  5
201
330
1FC
100
AcDbEntity
  8
Plywoodparts
 62
7
100
AcDbLine
 10
3.7874782683118173
 20
-3.1077775794608709
 30
0
 11
4.347330657984255
 21
-3.1380276396259985
 31
0
  0
ARC
  5
202
330
1FC
100
AcDbEntity
  8
Plywoodparts
 62
7
100
AcDbCircle
 10
8.668346564009024
 20
7.8235083039410709
 30
0
 40
11.782463609204685
100
AcDbArc
 50
245.02564652635275
 51
248.48573866600631
  0
ARC
  5
203
330
1FC
100
AcDbEntity
  8
Plywoodparts
 62
7
100
AcDbCircle
 10
7.9082932503496215
 20
6.4071740194709754
 30
0
 40
10.178063718080511
100
AcDbArc
 50
219.01384374435389
 51
245.53787739614268
  0
ENDBLK
  5
204
330
1FC
100
AcDbEntity
  8
0
100
AcDbBlockEnd
  0
BLOCK
  5
206
330
205
100
AcDbEntity
  8
0
100
AcDbBlockBegin
  2
6
 70
64
 10
0
 20
0
 30
1
  3
6
  0
ARC
  5
207
330
205
100
AcDbEntity
  8
Plywoodparts
 62
7
100
AcDbCircle
 10
0.79823778781598331
 20
4.489180260037017
 30
0
 40
4.5595967993894089
100
AcDbArc
 50
213.25309315065152
 51
259.91740644616141
  0
LINE
  5
208
330
205
100
AcDbEntity
  8
Plywoodparts
 62
7
100
AcDbLine
 10
-3.014754922259844
 20
1.9889783550078808
 30
0
 11
-3.145988047834646
 21
1.9672444783110241
 31
0
  0
LINE
  5
209
330
205
100
AcDbEntity
  8
Plywoodparts
 62
7
100
AcDbLine
 10
-3.145988047834646
 20
1.9672444783110241
 30
0
 11
-2.3455940933346451
 21
-0.29458045925590431
 31
0
  0
LINE
  5
20A
330
205
100
AcDbEntity
  8
Plywoodparts
 62
7
100
AcDbLine
 10
-2.3455940933346451
 20
-0.29458045925590431
 30
0
 11
0.022138275405512612
 21
-0.13367495901181314
 31
0
  0
LINE
  5
20B
330
205
100
AcDbEntity
  8
Plywoodparts
 62
7
100
AcDbLine
 10
0.022138275405512612
 20
-0.13367495901181314
 30
0
 11
0
 21
0
 31
0
  0
ENDBLK
  5
20C
330
205
100
AcDbEntity
  8
0
100
AcDbBlockEnd
  0
BLOCK
  5
20E
330
20D
100
AcDbEntity
  8
0
100
AcDbBlockBegin
  2
35
 70
64
 10
0
 20
0
 30
1
  3
35
  0
ARC
  5
20F
330
20D
100
AcDbEntity
  8
Plywoodparts
 62
7
100
AcDbCircle
 10
1.3798354114770393
 20
-48.287375900813387
 30
0
 40
48.30708661417323
100
AcDbArc
 50
91.636809535882037
 51
94.723861398420851
  0
LINE
  5
210
330
20D
100
AcDbEntity
  8
Plywoodparts
 62
7
100
AcDbLine
 10
-2.5984251968503944
 20
-0.14437994416929453
 30
0
 11
-2.5984251968503944
 21
-1.5944625149842542
 31
0
  0
LINE
  5
211
330
20D
100
AcDbEntity
  8
Plywoodparts
 62
7
100
AcDbLine
 10
-2.5984251968503944
 20
-1.5944625149842542
 30
0
 11
-2.4651903288156619E-32
 21
-1.5944625149842544
 31
0
  0
LINE
  5
212
330
20D
100
AcDbEntity
  8
Plywoodparts
 62
7
100
AcDbLine
 10
-2.4651903288156619E-32
 20
-1.5944625149842544
 30
0
 11
0
 21
0
 31
0
  0
ENDBLK
  5
213
330
20D
100
AcDbEntity
  8
0
100
AcDbBlockEnd
  0
BLOCK
  5
215
330
214
100
AcDbEntity
  8
0
100
AcDbBlockBegin
  2
36
 70
64
 10
0
 20
0
 30
1
  3
36
  0
LINE
  5
216
330
214
100
AcDbEntity
  8
Plywoodparts
 62
7
100
AcDbLine
 10
0
 20
0
 30
0
 11
0.050035481929136129
 21
-2.3616747469881894
 31
0
  0
LINE
  5
217
330
214
100
AcDbEntity
  8
Plywoodparts
 62
7
100
AcDbLine
 10
0.050035481929136129
 20
-2.3616747469881894
 30
0
 11
1.4997927164133851
 21
-2.33095955134252
 31
0
  0
LINE
  5
218
330
214
100
AcDbEntity
  8
Plywoodparts
 62
7
100
AcDbLine
 10
1.4997927164133851
 20
-2.33095955134252
 30
0
 11
1.4497572344881888
 21
0.030715195645669359
 31
0
  0
LINE
  5
219
330
214
100
AcDbEntity
  8
Plywoodparts
 62
7
100
AcDbLine
 10
1.4497572344881888
 20
0.030715195645669359
 30
0
 11
0
 21
0
 31
0
  0
ENDBLK
  5
21A
330
214
100
AcDbEntity
  8
0
100
AcDbBlockEnd
  0
BLOCK
  5
21C
330
21B
100
AcDbEntity
  8
0
100
AcDbBlockBegin
  2
51
 70
64
 10
0
 20
0
 30
1
  3
51
  0
ARC
  5
21D
330
21B
100
AcDbEntity
  8
Plywoodparts
 62
7
100
AcDbCircle
 10
272.44535716250067
 20
39.114643441302356
 30
0
 40
275.23885621572913
100
AcDbArc
 50
188.17005585031379
 51
195.04999431419904
  0
ARC
  5
21E
330
21B
100
AcDbEntity
  8
Plywoodparts
 62
7
100
AcDbCircle
 10
293.568756824766
 20
44.435468994350785
 30
0
 40
297.01953257214842
100
AcDbArc
 50
194.98313040713504
 51
200.24781759073593
  0
LINE
  5
21F
330
21B
100
AcDbEntity
  8
Plywoodparts
 62
7
100
AcDbLine
 10
14.903689158290716
 20
-58.35744317286219
 30
0
 11
14.904457952324677
 21
-58.359532091102352
 31
0
  0
LINE
  5
220
330
21B
100
AcDbEntity
  8
Plywoodparts
 62
7
100
AcDbLine
 10
14.904457952324677
 20
-58.359532091102352
 30
0
 11
14.959985017411299
 21
-58.359422913314944
 31
0
  0
LINE
  5
221
330
21B
100
AcDbEntity
  8
Plywoodparts
 62
7
100
AcDbLine
 10
14.959985017411299
 20
-58.359422913314944
 30
0
 11
15.01408389732075
 21
-58.359505703629935
 31
0
  0
LINE
  5
222
330
21B
100
AcDbEntity
  8
Plywoodparts
 62
7
100
AcDbLine
 10
15.01408389732075
 20
-58.359505703629935
 30
0
 11
15.068182128871927
 21
-58.359228207169281
 31
0
  0
LINE
  5
223
330
21B
100
AcDbEntity
  8
Plywoodparts
 62
7
100
AcDbLine
 10
15.068182128871927
 20
-58.359228207169281
 30
0
 11
15.123709227265623
 21
-58.359137537397658
 31
0
  0
LINE
  5
224
330
21B
100
AcDbEntity
  8
Plywoodparts
 62
7
100
AcDbLine
 10
15.123709227265623
 20
-58.359137537397658
 30
0
 11
15.124470498119951
 21
-58.357045865728338
 31
0
  0
ARC
  5
225
330
21B
100
AcDbEntity
  8
Plywoodparts
 62
7
100
AcDbCircle
 10
-262.28865015308827
 20
42.891342911146083
 30
0
 40
295.31216659554525
100
AcDbArc
 50
339.94926660013692
 51
347.72332596475161
  0
ARC
  5
226
330
21B
100
AcDbEntity
  8
Plywoodparts
 62
7
100
AcDbCircle
 10
-240.00816455955206
 20
37.730239076400395
 30
0
 40
272.44393860412163
100
AcDbArc
 50
347.78757844677358
 51
352.05102666703772
  0
LINE
  5
227
330
21B
100
AcDbEntity
  8
Plywoodparts
 62
7
100
AcDbLine
 10
29.818029497369096
 20
0.053659044725607834
 30
0
 11
29.402912594927056
 21
0.052164992374018858
 31
0
  0
ARC
  5
228
330
21B
100
AcDbEntity
  8
Plywoodparts
 62
7
100
AcDbCircle
 10
29.403408532387644
 20
-0.0856293907519596
 30
0
 40
0.13779527559055668
100
AcDbArc
 50
90.206213054971272
 51
164.65606214921689
  0
LINE
  5
229
330
21B
100
AcDbEntity
  8
Plywoodparts
 62
7
100
AcDbLine
 10
29.270524999554567
 20
-0.04916701731219851
 30
0
 11
28.598514980163262
 21
-2.4982414206259715
 31
0
  0
ARC
  5
22A
330
21B
100
AcDbEntity
  8
Plywoodparts
 62
7
100
AcDbCircle
 10
28.427664723663231
 20
-2.4513612262043107
 30
0
 40
0.17716535433071615
100
AcDbArc
 50
195.75636396074432
 51
344.65606214952516
  0
LINE
  5
22B
330
21B
100
AcDbEntity
  8
Plywoodparts
 62
7
100
AcDbLine
 10
28.257156343159572
 20
-2.4994700086996016
 30
0
 11
27.56753497415146
 21
-0.0552962696771556
 31
0
  0
ARC
  5
22C
330
21B
100
AcDbEntity
  8
Plywoodparts
 62
7
100
AcDbCircle
 10
27.434917344871469
 20
-0.0927142116196774
 30
0
 40
0.137795275590563
100
AcDbArc
 50
15.756363961512024
 51
164.656062148541
  0
LINE
  5
22D
330
21B
100
AcDbEntity
  8
Plywoodparts
 62
7
100
AcDbLine
 10
27.302033812038786
 20
-0.056251838178338891
 30
0
 11
26.630023792647517
 21
-2.5053262414881754
 31
0
  0
ARC
  5
22E
330
21B
100
AcDbEntity
  8
Plywoodparts
 62
7
100
AcDbCircle
 10
26.459173536147468
 20
-2.4584460470665288
 30
0
 40
0.17716535433071692
100
AcDbArc
 50
195.75636396074145
 51
344.65606214953107
  0
LINE
  5
22F
330
21B
100
AcDbEntity
  8
Plywoodparts
 62
7
100
AcDbLine
 10
26.288665155643827
 20
-2.5065548295618054
 30
0
 11
25.599043786635711
 21
-0.062381090539359571
 31
0
  0
ARC
  5
230
330
21B
100
AcDbEntity
  8
Plywoodparts
 62
7
100
AcDbCircle
 10
25.466426157355183
 20
-0.099799032480303973
 30
0
 40
0.1377952755905496
100
AcDbArc
 50
15.756363960820208
 51
90.206213056132356
  0
LINE
  5
231
330
21B
100
AcDbEntity
  8
Plywoodparts
 62
7
100
AcDbLine
 10
25.465930219891803
 20
0.037995350645674504
 30
0
 11
25.045159526056967
 21
0.036480949665362174
 31
0
  0
ARC
  5
232
330
21B
100
AcDbEntity
  8
Plywoodparts
 62
7
100
AcDbCircle
 10
-219.84186092716394
 20
34.659518607955519
 30
0
 40
247.32247678515512
100
AcDbArc
 50
350.01559351988362
 51
351.9526472133972
  0
ARC
  5
233
330
21B
100
AcDbEntity
  8
Plywoodparts
 62
7
100
AcDbCircle
 10
19.244058724197789
 20
-7.4325633040039341
 30
0
 40
4.5595880424098425
100
AcDbArc
 50
275.63835005791111
 51
350.0387687382547
  0
LINE
  5
234
330
21B
100
AcDbEntity
  8
Plywoodparts
 62
7
100
AcDbLine
 10
19.692033772588225
 20
-11.970091427609047
 30
0
 11
16.703821811379797
 21
-12.265138816775588
 31
0
  0
LINE
  5
235
330
21B
100
AcDbEntity
  8
Plywoodparts
 62
7
100
AcDbLine
 10
16.703821811379797
 20
-12.265138816775588
 30
0
 11
16.702968495033343
 21
-12.267234786381875
 31
0
  0
ARC
  5
236
330
21B
100
AcDbEntity
  8
Plywoodparts
 62
7
100
AcDbCircle
 10
14.833087221880783
 20
7.4815319322315057
 30
0
 40
19.837092601535431
100
AcDbArc
 50
270.28366210214546
 51
275.40883693916669
  0
ARC
  5
237
330
21B
100
AcDbEntity
  8
Plywoodparts
 62
7
100
AcDbCircle
 10
14.960631390109757
 20
7.5364033242799318
 30
0
 40
19.89174251232626
100
AcDbArc
 50
264.80442116193075
 51
269.9155059066087
  0
LINE
  5
238
330
21B
100
AcDbEntity
  8
Plywoodparts
 62
7
100
AcDbLine
 10
13.159320052908425
 20
-12.27361176009488
 30
0
 11
13.158459198509718
 21
-12.27151887522048
 31
0
  0
LINE
  5
239
330
21B
100
AcDbEntity
  8
Plywoodparts
 62
7
100
AcDbLine
 10
13.158459198509718
 20
-12.27151887522048
 30
0
 11
10.169204689364051
 21
-11.9872282377992
 31
0
  0
ARC
  5
23A
330
21B
100
AcDbEntity
  8
Plywoodparts
 62
7
100
AcDbCircle
 10
10.600845868789365
 20
-7.4481172005244067
 30
0
 40
4.5595880424098425
100
AcDbArc
 50
190.167444316589
 51
264.56786299694505
  0
ARC
  5
23B
330
21B
100
AcDbEntity
  8
Plywoodparts
 62
7
100
AcDbCircle
 10
255.4829797035286
 20
36.470107080020469
 30
0
 40
253.34879579749881
100
AcDbArc
 50
188.27660596706303
 51
190.16757940948128
  0
LINE
  5
23C
330
21B
100
AcDbEntity
  8
Plywoodparts
 62
7
100
AcDbLine
 10
4.7729008841661482
 20
-5.19688034376042E-11
 30
0
 11
4.3521274650805841
 21
2.6649094847961107E-16
 31
0
  0
ARC
  5
23D
330
21B
100
AcDbEntity
  8
Plywoodparts
 62
7
100
AcDbCircle
 10
4.3521274650805841
 20
-0.137795275590548
 30
0
 40
0.13779527559055119
100
AcDbArc
 50
90
 51
164.44984909423778
  0
LINE
  5
23E
330
21B
100
AcDbEntity
  8
Plywoodparts
 62
7
100
AcDbLine
 10
4.2193760242268876
 20
-0.10085487864685634
 30
0
 11
3.5385559205333514
 21
-2.5474947960708505
 31
0
  0
ARC
  5
23F
330
21B
100
AcDbEntity
  8
Plywoodparts
 62
7
100
AcDbCircle
 10
3.3678754965777213
 20
-2.5000000000039364
 30
0
 40
0.17716535433071495
100
AcDbArc
 50
195.5501509043205
 51
344.44984909541887
  0
LINE
  5
240
330
21B
100
AcDbEntity
  8
Plywoodparts
 62
7
100
AcDbLine
 10
3.1971950726218941
 20
-2.5474947960700689
 30
0
 11
2.5163749689270514
 21
-0.10085487864566274
 31
0
  0
ARC
  5
241
330
21B
100
AcDbEntity
  8
Plywoodparts
 62
7
100
AcDbCircle
 10
2.3836235280732292
 20
-0.13779527558857282
 30
0
 40
0.13779527559055552
100
AcDbArc
 50
15.550150905435118
 51
164.44984909508693
  0
LINE
  5
242
330
21B
100
AcDbEntity
  8
Plywoodparts
 62
7
100
AcDbLine
 10
2.2508720872190136
 20
-0.10085487864685647
 30
0
 11
1.5700519835254778
 21
-2.5474947960708505
 31
0
  0
ARC
  5
243
330
21B
100
AcDbEntity
  8
Plywoodparts
 62
7
100
AcDbCircle
 10
1.3993715595698475
 20
-2.5000000000039364
 30
0
 40
0.17716535433071495
100
AcDbArc
 50
195.55015090432053
 51
344.44984909541887
  0
LINE
  5
244
330
21B
100
AcDbEntity
  8
Plywoodparts
 62
7
100
AcDbLine
 10
1.2286911356140204
 20
-2.5474947960700689
 30
0
 11
0.54787103191917752
 21
-0.10085487864566287
 31
0
  0
ARC
  5
245
330
21B
100
AcDbEntity
  8
Plywoodparts
 62
7
100
AcDbCircle
 10
0.41511959106587459
 20
-0.13779527559054824
 30
0
 40
0.13779527559055119
100
AcDbArc
 50
15.550150906284268
 51
90.000000000431768
  0
LINE
  5
246
330
21B
100
AcDbEntity
  8
Plywoodparts
 62
7
100
AcDbLine
 10
0.4151195910648362
 20
2.5418743923045493E-17
 30
0
 11
0
 21
0
 31
0
  0
ARC
  5
247
330
21B
100
AcDbEntity
  8
Plywoodparts
 62
7
100
AcDbCircle
 10
11.88601210676563
 20
-42.696439447834621
 30
0
 40
0.19685067443504373
100
AcDbArc
 50
270.11266736079887
 51
16.670561600916596
  0
LINE
  5
248
330
21B
100
AcDbEntity
  8
Plywoodparts
 62
7
100
AcDbLine
 10
12.074589149988567
 20
-42.639969218555507
 30
0
 11
10.931664932773504
 21
-38.823290169889759
 31
0
  0
ARC
  5
249
330
21B
100
AcDbEntity
  8
Plywoodparts
 62
7
100
AcDbCircle
 10
10.743088547090977
 20
-38.879760333755883
 30
0
 40
0.19685002576619604
100
AcDbArc
 50
16.670598264346523
 51
90.1126720291886
  0
LINE
  5
24A
330
21B
100
AcDbEntity
  8
Plywoodparts
 62
7
100
AcDbLine
 10
10.742701442181291
 20
-38.682910688610235
 30
0
 11
9.3051380937971224
 21
-38.685737237866135
 31
0
  0
ARC
  5
24B
330
21B
100
AcDbEntity
  8
Plywoodparts
 62
7
100
AcDbCircle
 10
9.3055251840293742
 20
-38.882587531775584
 30
0
 40
0.19685067449977439
100
AcDbArc
 50
90.112667385816636
 51
196.67056157566327
  0
LINE
  5
24C
330
21B
100
AcDbEntity
  8
Plywoodparts
 62
7
100
AcDbLine
 10
9.1169481407195345
 20
-38.939057760990153
 30
0
 11
10.259872357930981
 21
-42.755736809657463
 31
0
  0
ARC
  5
24D
330
21B
100
AcDbEntity
  8
Plywoodparts
 62
7
100
AcDbCircle
 10
10.448448743614456
 20
-42.699266645795291
 30
0
 40
0.19685002576596336
100
AcDbArc
 50
196.67059826316577
 51
270.11267203015825
  0
LINE
  5
24E
330
21B
100
AcDbEntity
  8
Plywoodparts
 62
7
100
AcDbLine
 10
10.448835848527473
 20
-42.89611629094054
 30
0
 11
11.886399196911802
 21
-42.893289741679524
 31
0
  0
ARC
  5
24F
330
21B
100
AcDbEntity
  8
Plywoodparts
 62
7
100
AcDbCircle
 10
19.214942248163268
 20
-38.864514806657468
 30
0
 40
0.19685002576617164
100
AcDbArc
 50
90.093541025197169
 51
163.53561479116755
  0
LINE
  5
250
330
21B
100
AcDbEntity
  8
Plywoodparts
 62
7
100
AcDbLine
 10
19.026163842695198
 20
-38.808723711731119
 30
0
 11
17.896983595482162
 21
-42.629491526728344
 31
0
  0
ARC
  5
251
330
21B
100
AcDbEntity
  8
Plywoodparts
 62
7
100
AcDbCircle
 10
18.085762658720633
 20
-42.6852826847047
 30
0
 40
0.19685067443504528
100
AcDbArc
 50
163.53565145338678
 51
270.09354569344521
  0
LINE
  5
252
330
21B
100
AcDbEntity
  8
Plywoodparts
 62
7
100
AcDbLine
 10
18.086084052806211
 20
-42.882133096772804
 30
0
 11
19.523648263466423
 21
-42.879785709291326
 31
0
  0
ARC
  5
253
330
21B
100
AcDbEntity
  8
Plywoodparts
 62
7
100
AcDbCircle
 10
19.523326886478504
 20
-42.682935945865353
 30
0
 40
0.1968500257659925
100
AcDbArc
 50
270.09354102519734
 51
343.53561479090206
  0
LINE
  5
254
330
21B
100
AcDbEntity
  8
Plywoodparts
 62
7
100
AcDbLine
 10
19.712105291946145
 20
-42.738727040792526
 30
0
 11
20.841285539163259
 21
-38.917959225795272
 31
0
  0
ARC
  5
255
330
21B
100
AcDbEntity
  8
Plywoodparts
 62
7
100
AcDbCircle
 10
20.652506475837566
 20
-38.862168067885818
 30
0
 40
0.19685067449977559
100
AcDbArc
 50
343.53565147925696
 51
90.093545669204943
  0
LINE
  5
256
330
21B
100
AcDbEntity
  8
Plywoodparts
 62
7
100
AcDbLine
 10
20.652185081835164
 20
-38.665317655752744
 30
0
 11
19.214620871175349
 21
-38.667665043231096
 31
0
  0
ENDBLK
  5
257
330
21B
100
AcDbEntity
  8
0
100
AcDbBlockEnd
  0
BLOCK
  5
259
330
258
100
AcDbEntity
  8
0
100
AcDbBlockBegin
  2
49
 70
64
 10
0
 20
0
 30
1
  3
49
  0
LINE
  5
25A
330
258
100
AcDbEntity
  8
Plywoodparts
 62
7
100
AcDbLine
 10
0
 20
0
 30
0
 11
0.68082010369550283
 21
-2.4466399174232265
 31
0
  0
ARC
  5
25B
330
258
100
AcDbEntity
  8
Plywoodparts
 62
7
100
AcDbCircle
 10
0.83253603610050675
 20
-2.4044223209191102
 30
0
 40
0.15748031496063425
100
AcDbArc
 50
195.55015090464872
 51
344.44984909498561
  0
LINE
  5
25C
330
258
100
AcDbEntity
  8
Plywoodparts
 62
7
100
AcDbLine
 10
0.984251968505234
 20
-2.4466399174241928
 30
0
 11
1.6650720721994432
 21
1.0195625917843489E-16
 31
0
  0
ARC
  5
25D
330
258
100
AcDbEntity
  8
Plywoodparts
 62
7
100
AcDbCircle
 10
1.8167880046044473
 20
-0.042217596504030896
 30
0
 40
0.15748031496062756
100
AcDbArc
 50
15.550150905004477
 51
164.44984909538121
  0
LINE
  5
25E
330
258
100
AcDbEntity
  8
Plywoodparts
 62
7
100
AcDbLine
 10
1.9685039370091744
 20
1.0233020755968226E-12
 30
0
 11
2.6493240407033771
 21
-2.4466399174232261
 31
0
  0
ARC
  5
25F
330
258
100
AcDbEntity
  8
Plywoodparts
 62
7
100
AcDbCircle
 10
2.8010399731083813
 20
-2.4044223209191666
 30
0
 40
0.15748031496063306
100
AcDbArc
 50
195.55015090462877
 51
344.4498490950055
  0
LINE
  5
260
330
258
100
AcDbEntity
  8
Plywoodparts
 62
7
100
AcDbLine
 10
2.9527559055131083
 20
-2.4466399174241924
 30
0
 11
3.6335760092073173
 21
2.2249236145671761E-16
 31
0
  0
ARC
  5
261
330
258
100
AcDbEntity
  8
Plywoodparts
 62
7
100
AcDbCircle
 10
3.7852919416115327
 20
-0.042217596506872943
 30
0
 40
0.15748031496062678
100
AcDbArc
 50
90
 51
164.44984909430806
  0
LINE
  5
262
330
258
100
AcDbEntity
  8
Plywoodparts
 62
7
100
AcDbLine
 10
3.7852919416115327
 20
0.115262718453778
 30
0
 11
4.1839615054924835
 21
0.1152627183030293
 31
0
  0
LINE
  5
263
330
258
100
AcDbEntity
  8
Plywoodparts
 62
7
100
AcDbLine
 10
4.1839615054924835
 20
0.1152627183030293
 30
0
 11
4.5999168876958612
 21
3.6004078203370398
 31
0
  0
ARC
  5
264
330
258
100
AcDbEntity
  8
Plywoodparts
 62
7
100
AcDbCircle
 10
7.4875825380483851
 20
3.2476611795312924
 30
0
 40
2.9091309872238109
100
AcDbArc
 50
91.865166368654684
 51
173.03546301467665
  0
LINE
  5
265
330
258
100
AcDbEntity
  8
Plywoodparts
 62
7
100
AcDbLine
 10
7.3928974663635065
 20
6.1552508751427126
 30
0
 11
7.3929020119422466
 21
6.1551385065049544
 31
0
  0
LINE
  5
266
330
258
100
AcDbEntity
  8
Plywoodparts
 62
7
100
AcDbLine
 10
7.3929020119422466
 20
6.1551385065049544
 30
0
 11
7.4002329491902747
 21
6.1553778640403607
 31
0
  0
LINE
  5
267
330
258
100
AcDbEntity
  8
Plywoodparts
 62
7
100
AcDbLine
 10
7.4002329491902747
 20
6.1553778640403607
 30
0
 11
7.400684129861296
 21
6.1440989103934669
 31
0
  0
ARC
  5
268
330
258
100
AcDbEntity
  8
Plywoodparts
 62
7
100
AcDbCircle
 10
14.054007627992805
 20
-200.3324437041384
 30
0
 40
206.58371030558388
100
AcDbArc
 50
91.006205641327583
 51
91.845611582209727
  0
ARC
  5
269
330
258
100
AcDbEntity
  8
Plywoodparts
 62
7
100
AcDbCircle
 10
13.79887156069503
 20
-190.5533045988561
 30
0
 40
196.80161644334999
100
AcDbArc
 50
90.10080436880925
 51
90.981934261937084
  0
ARC
  5
26A
330
258
100
AcDbEntity
  8
Plywoodparts
 62
7
100
AcDbCircle
 10
13.735471615685908
 20
-204.0942124451494
 30
0
 40
210.34240987332206
100
AcDbArc
 50
89.252639226096065
 51
90.077045366718679
  0
ARC
  5
26B
330
258
100
AcDbEntity
  8
Plywoodparts
 62
7
100
AcDbCircle
 10
13.828349591221024
 20
-189.36115927622379
 30
0
 40
195.6094238009803
100
AcDbArc
 50
88.337052952913
 51
89.223553047055589
  0
LINE
  5
26C
330
258
100
AcDbEntity
  8
Plywoodparts
 62
7
100
AcDbLine
 10
19.50490113902886
 20
6.1658809056309014
 30
0
 11
19.505311723103659
 21
6.1771614100600534
 31
0
  0
LINE
  5
26D
330
258
100
AcDbEntity
  8
Plywoodparts
 62
7
100
AcDbLine
 10
19.505311723103659
 20
6.1771614100600534
 30
0
 11
19.512643474335952
 21
6.1769484385836808
 31
0
  0
LINE
  5
26E
330
258
100
AcDbEntity
  8
Plywoodparts
 62
7
100
AcDbLine
 10
19.512643474335952
 20
6.1769484385836808
 30
0
 11
19.512647615463429
 21
6.1770608228541466
 31
0
  0
ARC
  5
26F
330
258
100
AcDbEntity
  8
Plywoodparts
 62
7
100
AcDbCircle
 10
19.428427757871148
 20
3.26914918107184
 30
0
 40
2.9091309872238109
100
AcDbArc
 50
7.1707485970421834
 51
88.34104524309528
  0
LINE
  5
270
330
258
100
AcDbEntity
  8
Plywoodparts
 62
7
100
AcDbLine
 10
22.314805148151574
 20
3.6322864301992595
 30
0
 11
22.743301095954056
 21
0.14866095035137192
 31
0
  0
LINE
  5
271
330
258
100
AcDbEntity
  8
Plywoodparts
 62
7
100
AcDbLine
 10
22.743301095954056
 20
0.14866095035137192
 30
0
 11
23.141968077806538
 21
0.15009578755197736
 31
0
  0
ARC
  5
272
330
258
100
AcDbEntity
  8
Plywoodparts
 62
7
100
AcDbCircle
 10
23.142534859511645
 20
-0.0073835074635994194
 30
0
 40
0.15748031496062714
100
AcDbArc
 50
15.75636251653215
 51
90.206211612696961
  0
LINE
  5
273
330
258
100
AcDbEntity
  8
Plywoodparts
 62
7
100
AcDbLine
 10
23.294097865481614
 20
0.035379850934079117
 30
0
 11
23.983719172925746
 21
-2.40879390545828
 31
0
  0
ARC
  5
274
330
258
100
AcDbEntity
  8
Plywoodparts
 62
7
100
AcDbCircle
 10
24.135282178895597
 20
-2.3660305470601184
 30
0
 40
0.15748031496063702
100
AcDbArc
 50
195.75636251671293
 51
344.65606070700261
  0
LINE
  5
275
330
258
100
AcDbEntity
  8
Plywoodparts
 62
7
100
AcDbLine
 10
24.287149072513103
 20
-2.40770183481399
 30
0
 11
24.959159153589255
 21
0.041372551572494955
 31
0
  0
ARC
  5
276
330
258
100
AcDbEntity
  8
Plywoodparts
 62
7
100
AcDbCircle
 10
25.111026047205826
 20
-0.00029873618467337053
 30
0
 40
0.15748031496062914
100
AcDbArc
 50
15.756362518239131
 51
164.65606070575589
  0
LINE
  5
277
330
258
100
AcDbEntity
  8
Plywoodparts
 62
7
100
AcDbLine
 10
25.262589053174533
 20
0.042464622217524221
 30
0
 11
25.952210360622598
 21
-2.4017091341748356
 31
0
  0
ARC
  5
278
330
258
100
AcDbEntity
  8
Plywoodparts
 62
7
100
AcDbCircle
 10
26.103773366592449
 20
-2.3589457757767023
 30
0
 40
0.15748031496063344
100
AcDbArc
 50
195.75636251670298
 51
344.65606070702256
  0
LINE
  5
279
330
258
100
AcDbEntity
  8
Plywoodparts
 62
7
100
AcDbLine
 10
26.255640260209955
 20
-2.4006170635305168
 30
0
 11
26.927650341282163
 21
0.048457322855968467
 31
0
  0
ARC
  5
27A
330
258
100
AcDbEntity
  8
Plywoodparts
 62
7
100
AcDbCircle
 10
27.079517234898965
 20
0.0067860350995675367
 30
0
 40
0.1574803149606315
100
AcDbArc
 50
90.206211611132915
 51
164.65606070604738
  0
LINE
  5
27B
330
258
100
AcDbEntity
  8
Plywoodparts
 62
7
100
AcDbLine
 10
27.078950453198157
 20
0.16426533011517272
 30
0
 11
27.499352205645316
 21
0.16577839264198413
 31
0
  0
ARC
  5
27C
330
258
100
AcDbEntity
  8
Plywoodparts
 62
7
100
AcDbCircle
 10
-669.184689728298
 20
-82.992071035412735
 30
0
 40
701.62944793310635
100
AcDbArc
 50
6.8067550807698147
 51
9.6109745374681452
  0
ARC
  5
27D
330
258
100
AcDbEntity
  8
Plywoodparts
 62
7
100
AcDbCircle
 10
13.414455426062087
 20
-14.656895182882066
 30
0
 40
49.663433706562209
100
AcDbArc
 50
79.345265781680624
 51
81.73234694481512
  0
LINE
  5
27E
330
258
100
AcDbEntity
  8
Plywoodparts
 62
7
100
AcDbLine
 10
20.555934557320203
 20
34.490392873977392
 30
0
 11
20.535949607068982
 21
34.493201663108131
 31
0
  0
ARC
  5
27F
330
258
100
AcDbEntity
  8
Plywoodparts
 62
7
100
AcDbCircle
 10
13.045911460571293
 20
-17.904156202552937
 30
0
 40
52.929989445853543
100
AcDbArc
 50
81.8648597101673
 51
85.739943718785128
  0
ARC
  5
280
330
258
100
AcDbEntity
  8
Plywoodparts
 62
7
100
AcDbCircle
 10
13.472737705897858
 20
-13.701514444275373
 30
0
 40
48.7073848950374
100
AcDbArc
 50
85.873409782784933
 51
90.084534633773231
  0
ARC
  5
281
330
258
100
AcDbEntity
  8
Plywoodparts
 62
7
100
AcDbCircle
 10
13.592134613611258
 20
-15.959544757440737
 30
0
 40
50.965721068636611
100
AcDbArc
 50
90.215015579896288
 51
94.239463227106967
  0
ARC
  5
282
330
258
100
AcDbEntity
  8
Plywoodparts
 62
7
100
AcDbCircle
 10
13.565992730170638
 20
-14.514396695952938
 30
0
 40
49.522660538912987
100
AcDbArc
 50
94.3329021472429
 51
98.4747176473762
  0
LINE
  5
283
330
258
100
AcDbEntity
  8
Plywoodparts
 62
7
100
AcDbLine
 10
6.2676905045485531
 20
34.467525392465575
 30
0
 11
6.2477157927816682
 21
34.464644694423555
 31
0
  0
ARC
  5
284
330
258
100
AcDbEntity
  8
Plywoodparts
 62
7
100
AcDbCircle
 10
13.566032897073942
 20
-14.656622413491531
 30
0
 40
49.663433706562209
100
AcDbArc
 50
98.473864666997471
 51
100.86094583019275
  0
ARC
  5
285
330
258
100
AcDbEntity
  8
Plywoodparts
 62
7
100
AcDbCircle
 10
696.408955644245
 20
-80.534954952923513
 30
0
 40
701.63172532669694
100
AcDbArc
 50
170.59524162628807
 51
173.39945197908341
  0
LINE
  5
286
330
258
100
AcDbEntity
  8
Plywoodparts
 62
7
100
AcDbLine
 10
-0.57212040766405892
 20
0.11526271845377775
 30
0
 11
-0.15171593240421546
 21
0.11526271845377778
 31
0
  0
ARC
  5
287
330
258
100
AcDbEntity
  8
Plywoodparts
 62
7
100
AcDbCircle
 10
-0.15171593240421544
 20
-0.042217596506873192
 30
0
 40
0.15748031496062992
100
AcDbArc
 50
15.550150905691954
 51
90.000000000000014
  0
ENDBLK
  5
288
330
258
100
AcDbEntity
  8
0
100
AcDbBlockEnd
  0
BLOCK
  5
28A
330
289
100
AcDbEntity
  8
0
100
AcDbBlockBegin
  2
24
 70
64
 10
0
 20
0
 30
1
  3
24
  0
LINE
  5
28B
330
289
100
AcDbEntity
  8
Plywoodparts
 62
7
100
AcDbLine
 10
0
 20
0
 30
0
 11
0
 21
13.779527559055126
 31
0
  0
LINE
  5
28C
330
289
100
AcDbEntity
  8
Plywoodparts
 62
7
100
AcDbLine
 10
0
 20
13.779527559055126
 30
0
 11
-0.31496062992125928
 21
13.779527559055126
 31
0
  0
ARC
  5
28D
330
289
100
AcDbEntity
  8
Plywoodparts
 62
7
100
AcDbCircle
 10
-0.31496062992125928
 20
13.385826771653548
 30
0
 40
0.39370078740157477
100
AcDbArc
 50
90
 51
180
  0
LINE
  5
28E
330
289
100
AcDbEntity
  8
Plywoodparts
 62
7
100
AcDbLine
 10
-0.70866141732282983
 20
13.385826771653548
 30
0
 11
-0.70866141732282983
 21
8.6614173228346445
 31
0
  0
ARC
  5
28F
330
289
100
AcDbEntity
  8
Plywoodparts
 62
7
100
AcDbCircle
 10
-1.1023622047244146
 20
8.6614173228346445
 30
0
 40
0.39370078740157477
100
AcDbArc
 50
270
 51
0
  0
LINE
  5
290
330
289
100
AcDbEntity
  8
Plywoodparts
 62
7
100
AcDbLine
 10
-1.1023622047244146
 20
8.2677165354330739
 30
0
 11
-17.598425196850386
 21
8.2677165354330739
 31
0
  0
ARC
  5
291
330
289
100
AcDbEntity
  8
Plywoodparts
 62
7
100
AcDbCircle
 10
-17.598425196850386
 20
8.6614173228346445
 30
0
 40
0.39370078740157477
100
AcDbArc
 50
180
 51
270
  0
LINE
  5
292
330
289
100
AcDbEntity
  8
Plywoodparts
 62
7
100
AcDbLine
 10
-17.99212598425197
 20
8.6614173228346445
 30
0
 11
-17.99212598425197
 21
13.385826771653548
 31
0
  0
ARC
  5
293
330
289
100
AcDbEntity
  8
Plywoodparts
 62
7
100
AcDbCircle
 10
-18.385826771653541
 20
13.385826771653548
 30
0
 40
0.39370078740157477
100
AcDbArc
 50
0
 51
90
  0
LINE
  5
294
330
289
100
AcDbEntity
  8
Plywoodparts
 62
7
100
AcDbLine
 10
-18.385826771653541
 20
13.779527559055126
 30
0
 11
-18.7007874015748
 21
13.779527559055126
 31
0
  0
LINE
  5
295
330
289
100
AcDbEntity
  8
Plywoodparts
 62
7
100
AcDbLine
 10
-18.7007874015748
 20
13.779527559055126
 30
0
 11
-18.7007874015748
 21
0
 31
0
  0
LINE
  5
296
330
289
100
AcDbEntity
  8
Plywoodparts
 62
7
100
AcDbLine
 10
-18.7007874015748
 20
0
 30
0
 11
0
 21
0
 31
0
  0
ARC
  5
297
330
289
100
AcDbEntity
  8
Plywoodparts
 62
7
100
AcDbCircle
 10
-16.162038842497608
 20
4.21417571944307
 30
0
 40
1.6352104354622048
100
AcDbArc
 50
182.81535835808538
 51
227.97272242770754
  0
ARC
  5
298
330
289
100
AcDbEntity
  8
Plywoodparts
 62
7
100
AcDbCircle
 10
-13.862313659437945
 20
6.6011309691240854
 30
0
 40
4.9491617776164567
100
AcDbArc
 50
226.69607131791329
 51
248.07875275007015
  0
ARC
  5
299
330
289
100
AcDbEntity
  8
Plywoodparts
 62
7
100
AcDbCircle
 10
-11.061971838164354
 20
13.029672017655869
 30
0
 40
11.959999666083267
100
AcDbArc
 50
247.13068393694707
 51
258.960412263663
  0
ARC
  5
29A
330
289
100
AcDbEntity
  8
Plywoodparts
 62
7
100
AcDbCircle
 10
-9.4350444496998449
 20
20.890307680586226
 30
0
 40
19.98692085458358
100
AcDbArc
 50
258.6977956221167
 51
271.32890071319719
  0
ARC
  5
29B
330
289
100
AcDbEntity
  8
Plywoodparts
 62
7
100
AcDbCircle
 10
-9.2838368204522368
 20
21.464852371201268
 30
0
 40
20.558462338211967
100
AcDbArc
 50
270.8704630331822
 51
279.10284063150385
  0
ARC
  5
29C
330
289
100
AcDbEntity
  8
Plywoodparts
 62
7
100
AcDbCircle
 10
-8.1767472247900059
 20
14.971807224554958
 30
0
 40
13.972196903546967
100
AcDbArc
 50
278.8325972354728
 51
289.49252130727029
  0
ARC
  5
29D
330
289
100
AcDbEntity
  8
Plywoodparts
 62
7
100
AcDbCircle
 10
-5.5791222409172576
 20
7.8752159434189082
 30
0
 40
6.4160687952361419
100
AcDbArc
 50
288.77162808272516
 51
306.73230828424357
  0
ARC
  5
29E
330
289
100
AcDbEntity
  8
Plywoodparts
 62
7
100
AcDbCircle
 10
-2.9473170887284397
 20
4.4486925833344131
 30
0
 40
2.0967543321992754
100
AcDbArc
 50
305.09513416167465
 51
343.25158985422172
  0
ARC
  5
29F
330
289
100
AcDbEntity
  8
Plywoodparts
 62
7
100
AcDbCircle
 10
-2.28409953174328
 20
4.1338582677165405
 30
0
 40
1.3753799252262915
100
AcDbArc
 50
347.85391556434428
 51
38.64199635013707
  0
ARC
  5
2A0
330
289
100
AcDbEntity
  8
Plywoodparts
 62
7
100
AcDbCircle
 10
-4.1289745857443307
 20
2.6589360779600426
 30
0
 40
3.7373620230407245
100
AcDbArc
 50
38.641547305615433
 51
64.4718348952595
  0
ARC
  5
2A1
330
289
100
AcDbEntity
  8
Plywoodparts
 62
7
100
AcDbCircle
 10
-7.0106810131326114
 20
-2.879187428073898
 30
0
 40
9.9789915475072828
100
AcDbArc
 50
63.2447805997164
 51
76.60037253082443
  0
ARC
  5
2A2
330
289
100
AcDbEntity
  8
Plywoodparts
 62
7
100
AcDbCircle
 10
-8.935401315904457
 20
-10.391961819340668
 30
0
 40
17.733772387488781
100
AcDbArc
 50
76.176146389824282
 51
85.264041963577412
  0
ARC
  5
2A3
330
289
100
AcDbEntity
  8
Plywoodparts
 62
7
100
AcDbCircle
 10
-9.3445645417335328
 20
-14.369849297294252
 30
0
 40
21.732005385478896
100
AcDbArc
 50
85.0548743283036
 51
96.912287439339082
  0
ARC
  5
2A4
330
289
100
AcDbEntity
  8
Plywoodparts
 62
7
100
AcDbCircle
 10
-10.090217258453038
 20
-8.6128720530537777
 30
0
 40
15.927203783330473
100
AcDbArc
 50
96.7418364157238
 51
106.50714331186867
  0
ARC
  5
2A5
330
289
100
AcDbEntity
  8
Plywoodparts
 62
7
100
AcDbCircle
 10
-12.386317176399075
 20
-1.1385884501187391
 30
0
 40
8.1089486394441721
100
AcDbArc
 50
105.9577031164942
 51
121.30679261400378
  0
ARC
  5
2A6
330
289
100
AcDbEntity
  8
Plywoodparts
 62
7
100
AcDbCircle
 10
-15.213590369642233
 20
3.3688276581908667
 30
0
 40
2.7896835450378976
100
AcDbArc
 50
119.79767865244493
 51
151.25778486921485
  0
LINE
  5
2A7
330
289
100
AcDbEntity
  8
Plywoodparts
 62
7
100
AcDbLine
 10
-17.659562864346697
 20
4.7103017863813577
 30
0
 11
-17.795275590551185
 21
4.1338582677165334
 31
0
  0
ENDBLK
  5
2A8
330
289
100
AcDbEntity
  8
0
100
AcDbBlockEnd
  0
BLOCK
  5
2AA
330
2A9
100
AcDbEntity
  8
0
100
AcDbBlockBegin
  2
5
 70
64
 10
0
 20
0
 30
1
  3
5
  0
LINE
  5
2AB
330
2A9
100
AcDbEntity
  8
Plywoodparts
 62
7
100
AcDbLine
 10
0
 20
0
 30
0
 11
-1.5748031496062964
 21
-9.6428881822626021E-17
 31
0
  0
LINE
  5
2AC
330
2A9
100
AcDbEntity
  8
Plywoodparts
 62
7
100
AcDbLine
 10
-1.5748031496062964
 20
-9.6428881822626021E-17
 30
0
 11
-1.5748031496062964
 21
0.443612257870086
 31
0
  0
LINE
  5
2AD
330
2A9
100
AcDbEntity
  8
Plywoodparts
 62
7
100
AcDbLine
 10
-1.5748031496062964
 20
0.443612257870086
 30
0
 11
-4.1338582677165334
 21
0.44361225787008585
 31
0
  0
LINE
  5
2AE
330
2A9
100
AcDbEntity
  8
Plywoodparts
 62
7
100
AcDbLine
 10
-4.1338582677165334
 20
0.44361225787008585
 30
0
 11
-4.1338582677165334
 21
-0.10515255562205565
 31
0
  0
LINE
  5
2AF
330
2A9
100
AcDbEntity
  8
Plywoodparts
 62
7
100
AcDbLine
 10
-4.1338582677165334
 20
-0.10515255562205565
 30
0
 11
-5.70866141732283
 21
-0.10515255562205575
 31
0
  0
LINE
  5
2B0
330
2A9
100
AcDbEntity
  8
Plywoodparts
 62
7
100
AcDbLine
 10
-5.70866141732283
 20
-0.10515255562205575
 30
0
 11
-5.70866141732283
 21
0.44359917148818756
 31
0
  0
LINE
  5
2B1
330
2A9
100
AcDbEntity
  8
Plywoodparts
 62
7
100
AcDbLine
 10
-5.70866141732283
 20
0.44359917148818756
 30
0
 11
-8.37688696314661
 21
0.4435991714870221
 31
0
  0
ARC
  5
2B2
330
2A9
100
AcDbEntity
  8
Plywoodparts
 62
7
100
AcDbCircle
 10
220.02946358219805
 20
-169.99414717278941
 30
0
 40
284.98857231187168
100
AcDbArc
 50
143.26955058133902
 51
144.32889583770844
  0
ARC
  5
2B3
330
2A9
100
AcDbEntity
  8
Plywoodparts
 62
7
100
AcDbCircle
 10
102.41639809167241
 20
-84.899122586236231
 30
0
 40
139.82180591058346
100
AcDbArc
 50
144.55239261583179
 51
145.63197074104582
  0
ARC
  5
2B4
330
2A9
100
AcDbEntity
  8
Plywoodparts
 62
7
100
AcDbCircle
 10
76.8802538998362
 20
-67.3229355459756
 30
0
 40
108.82170911784647
100
AcDbArc
 50
145.68070890173263
 51
147.06775759747791
  0
ARC
  5
2B5
330
2A9
100
AcDbEntity
  8
Plywoodparts
 62
7
100
AcDbCircle
 10
1177.6415201556411
 20
90.845621939093633
 30
0
 40
1196.2012780686141
100
AcDbArc
 50
184.74772635733538
 51
185.17155339926944
  0
LINE
  5
2B6
330
2A9
100
AcDbEntity
  8
Plywoodparts
 62
7
100
AcDbLine
 10
-13.690349976586614
 20
-16.977719041570882
 30
0
 11
-13.201715244984253
 21
-17.070450408952755
 31
0
  0
LINE
  5
2B7
330
2A9
100
AcDbEntity
  8
Plywoodparts
 62
7
100
AcDbLine
 10
-13.201715244984253
 20
-17.070450408952755
 30
0
 11
-13.124239078027557
 21
-17.923054189724414
 31
0
  0
LINE
  5
2B8
330
2A9
100
AcDbEntity
  8
Plywoodparts
 62
7
100
AcDbLine
 10
-13.124239078027557
 20
-17.923054189724414
 30
0
 11
-9.3873074340944918
 21
-18.627132316763777
 31
0
  0
LINE
  5
2B9
330
2A9
100
AcDbEntity
  8
Plywoodparts
 62
7
100
AcDbLine
 10
-9.3873074340944918
 20
-18.627132316763777
 30
0
 11
-9.3018029990354378
 21
-16.786461163519704
 31
0
  0
LINE
  5
2BA
330
2A9
100
AcDbEntity
  8
Plywoodparts
 62
7
100
AcDbLine
 10
-9.3018029990354378
 20
-16.786461163519704
 30
0
 11
-8.8198949139645748
 21
-16.877915971763798
 31
0
  0
LINE
  5
2BB
330
2A9
100
AcDbEntity
  8
Plywoodparts
 62
7
100
AcDbLine
 10
-8.8198949139645748
 20
-16.877915971763798
 30
0
 11
-8.9056343501732371
 21
-18.723646041968522
 31
0
  0
LINE
  5
2BC
330
2A9
100
AcDbEntity
  8
Plywoodparts
 62
7
100
AcDbLine
 10
-8.9056343501732371
 20
-18.723646041968522
 30
0
 11
-5.4928537385315011
 21
-19.407471194602351
 31
0
  0
LINE
  5
2BD
330
2A9
100
AcDbEntity
  8
Plywoodparts
 62
7
100
AcDbLine
 10
-5.4928537385315011
 20
-19.407471194602351
 30
0
 11
-2.5422381854525389
 21
-19.967428555691725
 31
0
  0
ARC
  5
2BE
330
2A9
100
AcDbEntity
  8
Plywoodparts
 62
7
100
AcDbCircle
 10
-0.77437869347928423
 20
-10.653151001533047
 30
0
 40
9.4805639884592132
100
AcDbArc
 50
259.25303613846779
 51
269.92129620427028
  0
ARC
  5
2BF
330
2A9
100
AcDbEntity
  8
Plywoodparts
 62
7
100
AcDbCircle
 10
-0.80036558072727293
 20
-10.653772352606694
 30
0
 40
9.4799425572755514
100
AcDbArc
 50
270.07835311787181
 51
280.74731453933384
  0
LINE
  5
2C0
330
2A9
100
AcDbEntity
  8
Plywoodparts
 62
7
100
AcDbLine
 10
0.96743503584645418
 20
-19.967428555692919
 30
0
 11
3.9180505889251949
 21
-19.407471194602351
 31
0
  0
LINE
  5
2C1
330
2A9
100
AcDbEntity
  8
Plywoodparts
 62
7
100
AcDbLine
 10
3.9180505889251949
 20
-19.407471194602351
 30
0
 11
7.3308312005669265
 21
-18.723646041968522
 31
0
  0
LINE
  5
2C2
330
2A9
100
AcDbEntity
  8
Plywoodparts
 62
7
100
AcDbLine
 10
7.3308312005669265
 20
-18.723646041968522
 30
0
 11
7.2450917643622
 21
-16.877915971759847
 31
0
  0
LINE
  5
2C3
330
2A9
100
AcDbEntity
  8
Plywoodparts
 62
7
100
AcDbLine
 10
7.2450917643622
 20
-16.877915971759847
 30
0
 11
7.72699984943307
 21
-16.786461163519704
 31
0
  0
LINE
  5
2C4
330
2A9
100
AcDbEntity
  8
Plywoodparts
 62
7
100
AcDbLine
 10
7.72699984943307
 20
-16.786461163519704
 30
0
 11
7.8125042844881847
 21
-18.627132316763777
 31
0
  0
LINE
  5
2C5
330
2A9
100
AcDbEntity
  8
Plywoodparts
 62
7
100
AcDbLine
 10
7.8125042844881847
 20
-18.627132316763777
 30
0
 11
11.549435928425197
 21
-17.923054189720457
 31
0
  0
LINE
  5
2C6
330
2A9
100
AcDbEntity
  8
Plywoodparts
 62
7
100
AcDbLine
 10
11.549435928425197
 20
-17.923054189720457
 30
0
 11
11.62691209537795
 21
-17.070450408948826
 31
0
  0
LINE
  5
2C7
330
2A9
100
AcDbEntity
  8
Plywoodparts
 62
7
100
AcDbLine
 10
11.62691209537795
 20
-17.070450408948826
 30
0
 11
12.115547168096104
 21
-16.977719072382254
 31
0
  0
ARC
  5
2C8
330
2A9
100
AcDbEntity
  8
Plywoodparts
 62
7
100
AcDbCircle
 10
-1179.1946467542043
 20
90.843694396481
 30
0
 40
1196.1795163543031
100
AcDbArc
 50
354.828444963184
 51
355.25227971576192
  0
ARC
  5
2C9
330
2A9
100
AcDbEntity
  8
Plywoodparts
 62
7
100
AcDbCircle
 10
-75.796578066974789
 20
-65.55975867916338
 30
0
 40
105.63187042427873
100
AcDbArc
 50
32.91348292121571
 51
34.065172116926711
  0
ARC
  5
2CA
330
2A9
100
AcDbEntity
  8
Plywoodparts
 62
7
100
AcDbCircle
 10
-137.14378762200906
 20
-108.07186992927399
 30
0
 40
180.26652750163541
100
AcDbArc
 50
34.336710084660226
 51
37.011289352634222
  0
LINE
  5
2CB
330
2A9
100
AcDbEntity
  8
Plywoodparts
 62
7
100
AcDbLine
 10
6.8020838135393706
 20
0.44359917148818834
 30
0
 11
4.133858267716537
 21
0.44359917148818817
 31
0
  0
LINE
  5
2CC
330
2A9
100
AcDbEntity
  8
Plywoodparts
 62
7
100
AcDbLine
 10
4.133858267716537
 20
0.44359917148818817
 30
0
 11
4.133858267716537
 21
-0.10515255561810451
 31
0
  0
LINE
  5
2CD
330
2A9
100
AcDbEntity
  8
Plywoodparts
 62
7
100
AcDbLine
 10
4.133858267716537
 20
-0.10515255561810451
 30
0
 11
2.559055118110237
 21
-0.1051525556181046
 31
0
  0
LINE
  5
2CE
330
2A9
100
AcDbEntity
  8
Plywoodparts
 62
7
100
AcDbLine
 10
2.559055118110237
 20
-0.1051525556181046
 30
0
 11
2.559055118110237
 21
0.44361225787008618
 31
0
  0
LINE
  5
2CF
330
2A9
100
AcDbEntity
  8
Plywoodparts
 62
7
100
AcDbLine
 10
2.559055118110237
 20
0.44361225787008618
 30
0
 11
-2.7163416583156552E-17
 21
0.44361225787008607
 31
0
  0
LINE
  5
2D0
330
2A9
100
AcDbEntity
  8
Plywoodparts
 62
7
100
AcDbLine
 10
-2.7163416583156552E-17
 20
0.44361225787008607
 30
0
 11
0
 21
0
 31
0
  0
CIRCLE
  5
2D1
330
2A9
100
AcDbEntity
  8
Plywoodparts
 62
7
100
AcDbCircle
 10
-0.78740157480314765
 20
-12.751816281834635
 30
0
 40
4.2322834645669287
  0
LINE
  5
2D2
330
2A9
100
AcDbEntity
  8
Plywoodparts
 62
7
100
AcDbLine
 10
-10.807086614173228
 20
-6.6430150017401672
 30
0
 11
-10.807086614173228
 21
-5.4619126395354272
 31
0
  0
ARC
  5
2D3
330
2A9
100
AcDbEntity
  8
Plywoodparts
 62
7
100
AcDbCircle
 10
-10.885826771653546
 20
-5.4619126395354272
 30
0
 40
0.07874015748031496
100
AcDbArc
 50
0
 51
180
  0
LINE
  5
2D4
330
2A9
100
AcDbEntity
  8
Plywoodparts
 62
7
100
AcDbLine
 10
-10.964566929133857
 20
-5.4619126395354272
 30
0
 11
-10.964566929133857
 21
-6.6430150017401672
 31
0
  0
ARC
  5
2D5
330
2A9
100
AcDbEntity
  8
Plywoodparts
 62
7
100
AcDbCircle
 10
-10.885826771653546
 20
-6.6430150017401672
 30
0
 40
0.07874015748031496
100
AcDbArc
 50
180
 51
0
  0
ARC
  5
2D6
330
2A9
100
AcDbEntity
  8
Plywoodparts
 62
7
100
AcDbCircle
 10
9.3110236220472462
 20
-6.6430150017401672
 30
0
 40
0.07874015748031496
100
AcDbArc
 50
180
 51
0
  0
LINE
  5
2D7
330
2A9
100
AcDbEntity
  8
Plywoodparts
 62
7
100
AcDbLine
 10
9.389763779527561
 20
-6.6430150017401672
 30
0
 11
9.389763779527561
 21
-5.4619126395354272
 31
0
  0
ARC
  5
2D8
330
2A9
100
AcDbEntity
  8
Plywoodparts
 62
7
100
AcDbCircle
 10
9.3110236220472462
 20
-5.4619126395354272
 30
0
 40
0.07874015748031496
100
AcDbArc
 50
0
 51
180
  0
LINE
  5
2D9
330
2A9
100
AcDbEntity
  8
Plywoodparts
 62
7
100
AcDbLine
 10
9.2322834645669314
 20
-5.4619126395354272
 30
0
 11
9.2322834645669314
 21
-6.6430150017401672
 31
0
  0
ENDBLK
  5
2DA
330
2A9
100
AcDbEntity
  8
0
100
AcDbBlockEnd
  0
BLOCK
  5
2DC
330
2DB
100
AcDbEntity
  8
0
100
AcDbBlockBegin
  2
26
 70
64
 10
0
 20
0
 30
1
  3
26
  0
ARC
  5
2DD
330
2DB
100
AcDbEntity
  8
Plywoodparts
 62
7
100
AcDbCircle
 10
-0.00027757713870800389
 20
-0.0787396682173096
 30
0
 40
0.078740157480332668
100
AcDbArc
 50
269.79821192677207
 51
89.7980188002303
  0
LINE
  5
2DE
330
2DB
100
AcDbEntity
  8
Plywoodparts
 62
7
100
AcDbLine
 10
-0.00055488887008611645
 20
-0.15747933737009134
 30
0
 11
-3.2130707723335874
 21
-0.14615982504605599
 31
0
  0
LINE
  5
2DF
330
2DB
100
AcDbEntity
  8
Plywoodparts
 62
7
100
AcDbLine
 10
-3.2130707723335874
 20
-0.14615982504605599
 30
0
 11
-3.2155032355551083
 21
-2.232780788566942
 31
0
  0
LINE
  5
2E0
330
2DB
100
AcDbEntity
  8
Plywoodparts
 62
7
100
AcDbLine
 10
-3.2155032355551083
 20
-2.232780788566942
 30
0
 11
-0.0084004205838899317
 21
-2.2440811093244122
 31
0
  0
ARC
  5
2E1
330
2DB
100
AcDbEntity
  8
Plywoodparts
 62
7
100
AcDbCircle
 10
-0.00867822660164876
 20
-2.3228207767362221
 30
0
 40
0.0787401574803248
100
AcDbArc
 50
269.79838269959004
 51
89.797852253892813
  0
LINE
  5
2E2
330
2DB
100
AcDbEntity
  8
Plywoodparts
 62
7
100
AcDbLine
 10
-0.0089553036456711012
 20
-2.4015604467165304
 30
0
 11
-3.2152086771972113
 21
-2.3902631189893957
 31
0
  0
ARC
  5
2E3
330
2DB
100
AcDbEntity
  8
Plywoodparts
 62
7
100
AcDbCircle
 10
299.34650100244056
 20
-2.3589817776417039
 30
0
 40
302.56171129669997
100
AcDbArc
 50
180.00592371332198
 51
184.1484454400653
  0
LINE
  5
2E4
330
2DB
100
AcDbEntity
  8
Plywoodparts
 62
7
100
AcDbLine
 10
-2.4224904360851243
 20
-24.246534152513391
 30
0
 11
-2.2693993011181166
 21
-26.21117175087403
 31
0
  0
LINE
  5
2E5
330
2DB
100
AcDbEntity
  8
Plywoodparts
 62
7
100
AcDbLine
 10
-2.2693993011181166
 20
-26.21117175087403
 30
0
 11
0.63733241102531968
 21
-25.962519395521269
 31
0
  0
ARC
  5
2E6
330
2DB
100
AcDbEntity
  8
Plywoodparts
 62
7
100
AcDbCircle
 10
0.64404325407019447
 20
-26.040973056913771
 30
0
 40
0.07874015748033189
100
AcDbArc
 50
274.88965148639062
 51
94.889119016321786
  0
LINE
  5
2E7
330
2DB
100
AcDbEntity
  8
Plywoodparts
 62
7
100
AcDbLine
 10
0.65075482621260716
 20
-26.119426655937019
 30
0
 11
-2.2565405169651611
 21
-26.368127226325953
 31
0
  0
LINE
  5
2E8
330
2DB
100
AcDbEntity
  8
Plywoodparts
 62
7
100
AcDbLine
 10
-2.2565405169651611
 20
-26.368127226325953
 30
0
 11
-2.0772425937401495
 21
-28.4472950517559
 31
0
  0
LINE
  5
2E9
330
2DB
100
AcDbEntity
  8
Plywoodparts
 62
7
100
AcDbLine
 10
-2.0772425937401495
 20
-28.4472950517559
 30
0
 11
0.82168038193976345
 21
-28.199297585401581
 31
0
  0
ARC
  5
2EA
330
2DB
100
AcDbEntity
  8
Plywoodparts
 62
7
100
AcDbCircle
 10
0.82839182444779647
 20
-28.277751195512991
 30
0
 40
0.078740157480307479
100
AcDbArc
 50
274.88972770396111
 51
94.889556812672922
  0
LINE
  5
2EB
330
2DB
100
AcDbEntity
  8
Plywoodparts
 62
7
100
AcDbLine
 10
0.83510350095275665
 20
-28.356204785606309
 30
0
 11
-2.0630376093423148
 21
-28.604135364831876
 31
0
  0
ARC
  5
2EC
330
2DB
100
AcDbEntity
  8
Plywoodparts
 62
7
100
AcDbCircle
 10
248.6954132744437
 20
-5.8158904565523644
 30
0
 40
251.79178857865037
100
AcDbArc
 50
185.19262097448609
 51
189.70360388919525
  0
LINE
  5
2ED
330
2DB
100
AcDbEntity
  8
Plywoodparts
 62
7
100
AcDbLine
 10
0.50604274883070754
 20
-48.255743822649592
 30
0
 11
3.903611978940944
 21
-48.255743822649592
 31
0
  0
LINE
  5
2EE
330
2DB
100
AcDbEntity
  8
Plywoodparts
 62
7
100
AcDbLine
 10
3.903611978940944
 20
-48.255743822649592
 30
0
 11
3.903611978940948
 21
27.301510371433068
 31
0
  0
LINE
  5
2EF
330
2DB
100
AcDbEntity
  8
Plywoodparts
 62
7
100
AcDbLine
 10
3.903611978940948
 20
27.301510371433068
 30
0
 11
0.77369071909842846
 21
27.301510371433068
 31
0
  0
LINE
  5
2F0
330
2DB
100
AcDbEntity
  8
Plywoodparts
 62
7
100
AcDbLine
 10
0.77369071909842846
 20
27.301510371433068
 30
0
 11
0.77369071909842868
 21
25.766077300566906
 31
0
  0
LINE
  5
2F1
330
2DB
100
AcDbEntity
  8
Plywoodparts
 62
7
100
AcDbLine
 10
0.77369071909842868
 20
25.766077300566906
 30
0
 11
-2.3886467276707442
 21
25.766077300565343
 31
0
  0
ARC
  5
2F2
330
2DB
100
AcDbEntity
  8
Plywoodparts
 62
7
100
AcDbCircle
 10
497.82121912394086
 20
-3.1472638073200807
 30
0
 40
501.0447995831417
100
AcDbArc
 50
176.69184628364263
 51
179.56248625175698
  0
LINE
  5
2F3
330
2DB
100
AcDbEntity
  8
Plywoodparts
 62
7
100
AcDbLine
 10
-3.2089727337599259
 20
0.67870487312796912
 30
0
 11
-3.2124193318110175
 21
0.011319172118106145
 31
0
  0
LINE
  5
2F4
330
2DB
100
AcDbEntity
  8
Plywoodparts
 62
7
100
AcDbLine
 10
-3.2124193318110175
 20
0.011319172118106145
 30
0
 11
0
 21
0
 31
0
  0
CIRCLE
  5
2F5
330
2DB
100
AcDbEntity
  8
Plywoodparts
 62
7
100
AcDbCircle
 10
1.1523743283346519
 20
3.0169842298189167
 30
0
 40
0.11811023622047244
  0
CIRCLE
  5
2F6
330
2DB
100
AcDbEntity
  8
Plywoodparts
 62
7
100
AcDbCircle
 10
2.6466009900905472
 20
2.5565180825472571
 30
0
 40
0.098425196850411817
  0
CIRCLE
  5
2F7
330
2DB
100
AcDbEntity
  8
Plywoodparts
 62
7
100
AcDbCircle
 10
2.7108090716929172
 20
3.1435683527637939
 30
0
 40
0.098425196850429525
  0
ENDBLK
  5
2F8
330
2DB
100
AcDbEntity
  8
0
100
AcDbBlockEnd
  0
BLOCK
  5
2FA
330
2F9
100
AcDbEntity
  8
0
100
AcDbBlockBegin
  2
21
 70
64
 10
0
 20
0
 30
1
  3
21
  0
ARC
  5
2FB
330
2F9
100
AcDbEntity
  8
Plywoodparts
 62
7
100
AcDbCircle
 10
0.23558447841504915
 20
-0.017322388118696352
 30
0
 40
0.23622047244094607
100
AcDbArc
 50
175.79464299830528
 51
270
  0
LINE
  5
2FC
330
2F9
100
AcDbEntity
  8
Plywoodparts
 62
7
100
AcDbLine
 10
0.23558447841504912
 20
-0.25354286055964076
 30
0
 11
10.750751854037091
 21
-0.25354286055964081
 31
0
  0
ARC
  5
2FD
330
2F9
100
AcDbEntity
  8
Plywoodparts
 62
7
100
AcDbCircle
 10
10.750751854037091
 20
-0.017322388118696356
 30
0
 40
0.23622047244094607
100
AcDbArc
 50
270
 51
4.2053570016949884
  0
LINE
  5
2FE
330
2F9
100
AcDbEntity
  8
Plywoodparts
 62
7
100
AcDbLine
 10
10.986336332452126
 20
-1.9721522630525295E-31
 30
0
 11
10.020727221344172
 21
13.1322839110939
 31
0
  0
LINE
  5
2FF
330
2F9
100
AcDbEntity
  8
Plywoodparts
 62
7
100
AcDbLine
 10
10.020727221344172
 20
13.1322839110939
 30
0
 11
0.96560911110795189
 21
13.1322839110939
 31
0
  0
LINE
  5
300
330
2F9
100
AcDbEntity
  8
Plywoodparts
 62
7
100
AcDbLine
 10
0.96560911110795189
 20
13.1322839110939
 30
0
 11
0
 21
0
 31
0
  0
CIRCLE
  5
301
330
2F9
100
AcDbEntity
  8
Plywoodparts
 62
7
100
AcDbCircle
 10
4.0256382208874868
 20
0.21686042879075268
 30
0
 40
0.05905511811023622
  0
CIRCLE
  5
302
330
2F9
100
AcDbEntity
  8
Plywoodparts
 62
7
100
AcDbCircle
 10
0.29555064598196173
 20
0.49113157400334734
 30
0
 40
0.05905511811023622
  0
CIRCLE
  5
303
330
2F9
100
AcDbEntity
  8
Plywoodparts
 62
7
100
AcDbCircle
 10
0.56404766182448884
 20
4.1426909894364172
 30
0
 40
0.0590551181102374
  0
CIRCLE
  5
304
330
2F9
100
AcDbEntity
  8
Plywoodparts
 62
7
100
AcDbCircle
 10
4.2941352367260626
 20
3.8684198442238196
 30
0
 40
0.05905511811023622
  0
CIRCLE
  5
305
330
2F9
100
AcDbEntity
  8
Plywoodparts
 62
7
100
AcDbCircle
 10
6.9606981115646533
 20
0.21686042879075271
 30
0
 40
0.05905511811023622
  0
CIRCLE
  5
306
330
2F9
100
AcDbEntity
  8
Plywoodparts
 62
7
100
AcDbCircle
 10
10.69078568647015
 20
0.49113157400334739
 30
0
 40
0.05905511811023622
  0
CIRCLE
  5
307
330
2F9
100
AcDbEntity
  8
Plywoodparts
 62
7
100
AcDbCircle
 10
10.422288670627637
 20
4.1426909894364163
 30
0
 40
0.0590551181102374
  0
CIRCLE
  5
308
330
2F9
100
AcDbEntity
  8
Plywoodparts
 62
7
100
AcDbCircle
 10
6.6922010957260758
 20
3.8684198442238182
 30
0
 40
0.05905511811023622
  0
ENDBLK
  5
309
330
2F9
100
AcDbEntity
  8
0
100
AcDbBlockEnd
  0
BLOCK
  5
30B
330
30A
100
AcDbEntity
  8
0
100
AcDbBlockBegin
  2
7
 70
64
 10
0
 20
0
 30
1
  3
7
  0
ARC
  5
30C
330
30A
100
AcDbEntity
  8
Plywoodparts
 62
7
100
AcDbCircle
 10
-0.71936876861417476
 20
-4.4237786404438566
 30
0
 40
4.4818867550290946
100
AcDbArc
 50
80.763744782802817
 51
99.236255217197183
  0
LINE
  5
30D
330
30A
100
AcDbEntity
  8
Plywoodparts
 62
7
100
AcDbLine
 10
-1.4387375372283486
 20
8.8097265988992159E-17
 30
0
 11
-2.6878727056220484
 21
-0.20312698734645079
 31
0
  0
LINE
  5
30E
330
30A
100
AcDbEntity
  8
Plywoodparts
 62
7
100
AcDbLine
 10
-2.6878727056220484
 20
-0.20312698734645079
 30
0
 11
-2.706830082244096
 21
-0.086548062271645965
 31
0
  0
LINE
  5
30F
330
30A
100
AcDbEntity
  8
Plywoodparts
 62
7
100
AcDbLine
 10
-2.706830082244096
 20
-0.086548062271645965
 30
0
 11
-6.5766142245196848
 21
-0.71582951586219634
 31
0
  0
LINE
  5
310
330
30A
100
AcDbEntity
  8
Plywoodparts
 62
7
100
AcDbLine
 10
-6.5766142245196848
 20
-0.71582951586219634
 30
0
 11
-6.4980799558622078
 21
-1.8199063054802873
 31
0
  0
LINE
  5
311
330
30A
100
AcDbEntity
  8
Plywoodparts
 62
7
100
AcDbLine
 10
-6.4980799558622078
 20
-1.8199063054802873
 30
0
 11
-7.0432997715081154
 21
-1.9085667304966871
 31
0
  0
LINE
  5
312
330
30A
100
AcDbEntity
  8
Plywoodparts
 62
7
100
AcDbLine
 10
-7.0432997715081154
 20
-1.9085667304966871
 30
0
 11
-6.8701291252476029
 21
-10.01974126906299
 31
0
  0
ARC
  5
313
330
30A
100
AcDbEntity
  8
Plywoodparts
 62
7
100
AcDbCircle
 10
23.48313083778638
 20
-0.50571944905326094
 30
0
 40
31.809385432213858
100
AcDbArc
 50
197.40324292116642
 51
208.15724862018453
  0
ARC
  5
314
330
30A
100
AcDbEntity
  8
Plywoodparts
 62
7
100
AcDbCircle
 10
6.03753361905114
 20
-9.6878484209290434
 30
0
 40
12.096166224883387
100
AcDbArc
 50
208.80608822691656
 51
218.34955858843458
  0
LINE
  5
315
330
30A
100
AcDbEntity
  8
Plywoodparts
 62
7
100
AcDbLine
 10
-3.4487636919488196
 20
-17.193006691566922
 30
0
 11
2.0100261547176244
 21
-17.193006691566296
 31
0
  0
ARC
  5
316
330
30A
100
AcDbEntity
  8
Plywoodparts
 62
7
100
AcDbCircle
 10
-7.8306132408485443
 20
-9.5131255401265378
 30
0
 40
12.482738410052875
100
AcDbArc
 50
322.03063199003509
 51
332.49268990724204
  0
ARC
  5
317
330
30A
100
AcDbEntity
  8
Plywoodparts
 62
7
100
AcDbCircle
 10
-24.658811315284144
 20
-0.57170740825415423
 30
0
 40
31.538637487957718
100
AcDbArc
 50
332.20509574350484
 51
342.56821378277493
  0
LINE
  5
318
330
30A
100
AcDbEntity
  8
Plywoodparts
 62
7
100
AcDbLine
 10
5.4313915880164556
 20
-10.019741269064184
 30
0
 11
5.6045622338149563
 21
-1.9085667333543204
 31
0
  0
LINE
  5
319
330
30A
100
AcDbEntity
  8
Plywoodparts
 62
7
100
AcDbLine
 10
5.6045622338149563
 20
-1.9085667333543204
 30
0
 11
5.0593424186338574
 21
-1.819906305480288
 31
0
  0
LINE
  5
31A
330
30A
100
AcDbEntity
  8
Plywoodparts
 62
7
100
AcDbLine
 10
5.0593424186338574
 20
-1.819906305480288
 30
0
 11
5.1378766872913388
 21
-0.71582951586614774
 31
0
  0
LINE
  5
31B
330
30A
100
AcDbEntity
  8
Plywoodparts
 62
7
100
AcDbLine
 10
5.1378766872913388
 20
-0.71582951586614774
 30
0
 11
1.2680925450157474
 21
-0.086548062271646214
 31
0
  0
LINE
  5
31C
330
30A
100
AcDbEntity
  8
Plywoodparts
 62
7
100
AcDbLine
 10
1.2680925450157474
 20
-0.086548062271646214
 30
0
 11
1.2491351683936998
 21
-0.20312698734645104
 31
0
  0
LINE
  5
31D
330
30A
100
AcDbEntity
  8
Plywoodparts
 62
7
100
AcDbLine
 10
1.2491351683936998
 20
-0.20312698734645104
 30
0
 11
0
 21
0
 31
0
  0
LINE
  5
31E
330
30A
100
AcDbEntity
  8
Plywoodparts
 62
7
100
AcDbLine
 10
-3.0815734930236225
 20
-3.2837315818543118
 30
0
 11
-3.0815734930236225
 21
-3.4018418180747858
 31
0
  0
ARC
  5
31F
330
30A
100
AcDbEntity
  8
Plywoodparts
 62
7
100
AcDbCircle
 10
-3.0815734930236105
 20
-5.370345755082667
 30
0
 40
1.9685039370078858
100
AcDbArc
 50
90.000000000000355
 51
180
  0
LINE
  5
320
330
30A
100
AcDbEntity
  8
Plywoodparts
 62
7
100
AcDbLine
 10
-5.0500774300314966
 20
-5.370345755082667
 30
0
 11
-5.050077430031501
 21
-8.5315893686807271
 31
0
  0
ARC
  5
321
330
30A
100
AcDbEntity
  8
Plywoodparts
 62
7
100
AcDbCircle
 10
0.8554343809921251
 20
-8.5315893687331368
 30
0
 40
5.9055118110236222
100
AcDbArc
 50
179.99999999949151
 51
205.54580496769009
  0
LINE
  5
322
330
30A
100
AcDbEntity
  8
Plywoodparts
 62
7
100
AcDbLine
 10
-4.47275946706693
 20
-11.078238160311003
 30
0
 11
-2.91546377718477
 21
-14.336470446549384
 31
0
  0
ARC
  5
323
330
30A
100
AcDbEntity
  8
Plywoodparts
 62
7
100
AcDbCircle
 10
-1.5067703434175046
 20
-13.663175229987786
 30
0
 40
1.5613275245712361
100
AcDbArc
 50
205.54580496771504
 51
270.00000000000654
  0
LINE
  5
324
330
30A
100
AcDbEntity
  8
Plywoodparts
 62
7
100
AcDbLine
 10
-1.5067703434173252
 20
-15.22450275455904
 30
0
 11
0.068032806188974712
 21
-15.22450275455941
 31
0
  0
ARC
  5
325
330
30A
100
AcDbEntity
  8
Plywoodparts
 62
7
100
AcDbCircle
 10
0.068032806184271044
 20
-13.663175229988156
 30
0
 40
1.5613275245712361
100
AcDbArc
 50
270.00000000017263
 51
334.454195032387
  0
LINE
  5
326
330
30A
100
AcDbEntity
  8
Plywoodparts
 62
7
100
AcDbLine
 10
1.476726239952753
 20
-14.336470446547253
 30
0
 11
3.0340219298381532
 21
-11.078238160311031
 31
0
  0
ARC
  5
327
330
30A
100
AcDbEntity
  8
Plywoodparts
 62
7
100
AcDbCircle
 10
-2.2941719182204738
 20
-8.5315893687322557
 30
0
 40
5.9055118110236222
100
AcDbArc
 50
334.45419503230016
 51
0
  0
LINE
  5
328
330
30A
100
AcDbEntity
  8
Plywoodparts
 62
7
100
AcDbLine
 10
3.6113398928031466
 20
-8.5315893687322557
 30
0
 11
3.6113398928031484
 21
-5.3703457550998621
 31
0
  0
ARC
  5
329
330
30A
100
AcDbEntity
  8
Plywoodparts
 62
7
100
AcDbCircle
 10
1.6428359557952732
 20
-5.370345755082667
 30
0
 40
1.9685039370078896
100
AcDbArc
 50
359.99999999949949
 51
90
  0
LINE
  5
32A
330
30A
100
AcDbEntity
  8
Plywoodparts
 62
7
100
AcDbLine
 10
1.6428359557952732
 20
-3.4018418180747858
 30
0
 11
1.6428359557952732
 21
-3.2837315818543118
 31
0
  0
LINE
  5
32B
330
30A
100
AcDbEntity
  8
Plywoodparts
 62
7
100
AcDbLine
 10
1.6428359557952732
 20
-3.2837315818543118
 30
0
 11
-3.0815734930236225
 21
-3.2837315818543118
 31
0
  0
ENDBLK
  5
32C
330
30A
100
AcDbEntity
  8
0
100
AcDbBlockEnd
  0
BLOCK
  5
32E
330
32D
100
AcDbEntity
  8
0
100
AcDbBlockBegin
  2
40
 70
64
 10
0
 20
0
 30
1
  3
40
  0
LINE
  5
32F
330
32D
100
AcDbEntity
  8
Plywoodparts
 62
7
100
AcDbLine
 10
0
 20
0
 30
0
 11
3.2934588063967936
 21
0.33076264796103128
 31
0
  0
ARC
  5
330
330
32D
100
AcDbEntity
  8
Plywoodparts
 62
7
100
AcDbCircle
 10
3.2147757393778997
 20
1.114223058554332
 30
0
 40
0.78740157480314954
100
AcDbArc
 50
275.7349953403766
 51
38.433772627836191
  0
LINE
  5
331
330
32D
100
AcDbEntity
  8
Plywoodparts
 62
7
100
AcDbLine
 10
3.8315688020929031
 20
1.6036794486334576
 30
0
 11
-1.3091434209259778
 21
8.0817961937023419
 31
0
  0
ARC
  5
332
330
32D
100
AcDbEntity
  8
Plywoodparts
 62
7
100
AcDbCircle
 10
-1.9259364836389876
 20
7.5923398036212717
 30
0
 40
0.78740157480313788
100
AcDbArc
 50
38.433772628037204
 51
159.92727710903932
  0
LINE
  5
333
330
32D
100
AcDbEntity
  8
Plywoodparts
 62
7
100
AcDbLine
 10
-2.6655095179543458
 20
7.8625859264720592
 30
0
 11
-3.8015522090244169
 21
4.75361795578347
 31
0
  0
ARC
  5
334
330
32D
100
AcDbEntity
  8
Plywoodparts
 62
7
100
AcDbCircle
 10
-4.3562319847618252
 20
4.9563025479196856
 30
0
 40
0.59055118110238181
100
AcDbArc
 50
309.78056175155746
 51
339.92727710923987
  0
LINE
  5
335
330
32D
100
AcDbEntity
  8
Plywoodparts
 62
7
100
AcDbLine
 10
-3.9783683940055066
 20
4.5024635849799175
 30
0
 11
-5.083632029474038
 21
3.581149903137411
 31
0
  0
LINE
  5
336
330
32D
100
AcDbEntity
  8
Plywoodparts
 62
7
100
AcDbLine
 10
-5.083632029474038
 20
3.581149903137411
 30
0
 11
-4.1030759022732344
 21
2.3454928985153467
 31
0
  0
LINE
  5
337
330
32D
100
AcDbEntity
  8
Plywoodparts
 62
7
100
AcDbLine
 10
-4.1030759022732344
 20
2.3454928985153467
 30
0
 11
-6.07189983841223
 21
0.78313184949804082
 31
0
  0
ARC
  5
338
330
32D
100
AcDbEntity
  8
Plywoodparts
 62
7
100
AcDbCircle
 10
-5.8271716433696819
 20
0.47473531814289949
 30
0
 40
0.39370078740157477
100
AcDbArc
 50
128.43377262839002
 51
218.43377262809707
  0
LINE
  5
339
330
32D
100
AcDbEntity
  8
Plywoodparts
 62
7
100
AcDbLine
 10
-6.1355681747260062
 20
0.23000712310198246
 30
0
 11
-4.91145382380315
 21
-1.312572062540952
 31
0
  0
ARC
  5
33A
330
32D
100
AcDbEntity
  8
Plywoodparts
 62
7
100
AcDbCircle
 10
-4.6030572924460822
 20
-1.0678438675007784
 30
0
 40
0.39370078740157871
100
AcDbArc
 50
218.43377262794505
 51
308.4337726277376
  0
LINE
  5
33B
330
32D
100
AcDbEntity
  8
Plywoodparts
 62
7
100
AcDbLine
 10
-4.3583290974070987
 20
-1.3762403988586398
 30
0
 11
-2.389505161265371
 21
0.18612065015709867
 31
0
  0
LINE
  5
33C
330
32D
100
AcDbEntity
  8
Plywoodparts
 62
7
100
AcDbLine
 10
-2.389505161265371
 20
0.18612065015709867
 30
0
 11
-1.4123385199425236
 21
-1.0452650620240178
 31
0
  0
LINE
  5
33D
330
32D
100
AcDbEntity
  8
Plywoodparts
 62
7
100
AcDbLine
 10
-1.4123385199425236
 20
-1.0452650620240178
 30
0
 11
-0.31885129049370553
 21
-0.13375634500513736
 31
0
  0
ARC
  5
33E
330
32D
100
AcDbEntity
  8
Plywoodparts
 62
7
100
AcDbCircle
 10
0.059012300262199169
 20
-0.58759530794527914
 30
0
 40
0.59055118110237792
100
AcDbArc
 50
95.734995340183374
 51
129.78056175150343
  0
CIRCLE
  5
33F
330
32D
100
AcDbEntity
  8
Plywoodparts
 62
7
100
AcDbCircle
 10
-1.9259364836393695
 20
7.5923398036216536
 30
0
 40
0.19685039370076535
  0
CIRCLE
  5
340
330
32D
100
AcDbEntity
  8
Plywoodparts
 62
7
100
AcDbCircle
 10
3.2147757393803085
 20
1.1142230585547319
 30
0
 40
0.1968503937007815
  0
ARC
  5
341
330
32D
100
AcDbEntity
  8
Plywoodparts
 62
7
100
AcDbCircle
 10
-4.5521057787681283
 20
1.0234306044385944
 30
0
 40
1.1014513848753582
100
AcDbArc
 50
312.32714653416559
 51
340.02420798101076
  0
ARC
  5
342
330
32D
100
AcDbEntity
  8
Plywoodparts
 62
7
100
AcDbCircle
 10
-3.9152185091043323
 20
0.80577355653857641
 30
0
 40
0.42872200882159445
100
AcDbArc
 50
338.28481023269762
 51
31.833707488734781
  0
ARC
  5
343
330
32D
100
AcDbEntity
  8
Plywoodparts
 62
7
100
AcDbCircle
 10
-3.8529086707157427
 20
0.78693672048739738
 30
0
 40
0.3888036864906354
100
AcDbArc
 50
39.054369728217381
 51
96.332886829486071
  0
ARC
  5
344
330
32D
100
AcDbEntity
  8
Plywoodparts
 62
7
100
AcDbCircle
 10
-3.8186352640531664
 20
0.17496506030552506
 30
0
 40
1.0013799723034211
100
AcDbArc
 50
94.419248944716927
 51
127.86210862330182
  0
ARC
  5
345
330
32D
100
AcDbEntity
  8
Plywoodparts
 62
7
100
AcDbCircle
 10
-3.691568993255137
 20
0.15122831027087402
 30
0
 40
1.1014513848643937
100
AcDbArc
 50
132.3271465341243
 51
160.0242079813255
  0
ARC
  5
346
330
32D
100
AcDbEntity
  8
Plywoodparts
 62
7
100
AcDbCircle
 10
-4.3284562629197039
 20
0.36888535816063461
 30
0
 40
0.42872200881351963
100
AcDbArc
 50
158.28481023214948
 51
211.83370748928834
  0
ARC
  5
347
330
32D
100
AcDbEntity
  8
Plywoodparts
 62
7
100
AcDbCircle
 10
-4.3907661013051165
 20
0.38772219419802845
 30
0
 40
0.38880368647702124
100
AcDbArc
 50
219.05436972710089
 51
276.33288683064586
  0
ARC
  5
348
330
32D
100
AcDbEntity
  8
Plywoodparts
 62
7
100
AcDbCircle
 10
-4.4250395079618121
 20
0.99969385438622393
 30
0
 40
1.0013799722953818
100
AcDbArc
 50
274.41924894477734
 51
307.86210862364339
  0
LINE
  5
349
330
32D
100
AcDbEntity
  8
Plywoodparts
 62
7
100
AcDbLine
 10
1.3192779218842383
 20
2.6247154450665464
 30
0
 11
1.467687632777948
 21
2.4464656455901586
 31
0
  0
LINE
  5
34A
330
32D
100
AcDbEntity
  8
Plywoodparts
 62
7
100
AcDbLine
 10
1.467687632777948
 20
2.4464656455901586
 30
0
 11
2.2240859043448746
 21
3.0762382968460682
 31
0
  0
LINE
  5
34B
330
32D
100
AcDbEntity
  8
Plywoodparts
 62
7
100
AcDbLine
 10
2.2240859043448746
 20
3.0762382968460682
 30
0
 11
2.0756761934511849
 21
3.2544880963263751
 31
0
  0
LINE
  5
34C
330
32D
100
AcDbEntity
  8
Plywoodparts
 62
7
100
AcDbLine
 10
2.0756761934511849
 20
3.2544880963263751
 30
0
 11
1.3192779218842383
 21
2.6247154450665464
 31
0
  0
LINE
  5
34D
330
32D
100
AcDbEntity
  8
Plywoodparts
 62
7
100
AcDbLine
 10
-1.0138787807378051
 20
5.5027171792594487
 30
0
 11
-0.25748050917087273
 21
6.1324898305193045
 31
0
  0
LINE
  5
34E
330
32D
100
AcDbEntity
  8
Plywoodparts
 62
7
100
AcDbLine
 10
-0.25748050917087273
 20
6.1324898305193045
 30
0
 11
-0.40589022006456865
 21
6.3107396299996044
 31
0
  0
LINE
  5
34F
330
32D
100
AcDbEntity
  8
Plywoodparts
 62
7
100
AcDbLine
 10
-0.40589022006456865
 20
6.3107396299996044
 30
0
 11
-1.162288491631521
 21
5.68096697873977
 31
0
  0
LINE
  5
350
330
32D
100
AcDbEntity
  8
Plywoodparts
 62
7
100
AcDbLine
 10
-1.162288491631521
 20
5.68096697873977
 30
0
 11
-1.0138787807378051
 21
5.5027171792594487
 31
0
  0
ENDBLK
  5
351
330
32D
100
AcDbEntity
  8
0
100
AcDbBlockEnd
  0
BLOCK
  5
353
330
352
100
AcDbEntity
  8
0
100
AcDbBlockBegin
  2
9
 70
64
 10
0
 20
0
 30
1
  3
9
  0
LINE
  5
354
330
352
100
AcDbEntity
  8
Plywoodparts
 62
7
100
AcDbLine
 10
0
 20
0
 30
0
 11
-3.9329497716181265
 21
-0.00022429729525393478
 31
0
  0
LINE
  5
355
330
352
100
AcDbEntity
  8
Plywoodparts
 62
7
100
AcDbLine
 10
-3.9329497716181265
 20
-0.00022429729525393478
 30
0
 11
-2.651505007480325
 21
-4.2168245902637551
 31
0
  0
LINE
  5
356
330
352
100
AcDbEntity
  8
Plywoodparts
 62
7
100
AcDbLine
 10
-2.651505007480325
 20
-4.2168245902637551
 30
0
 11
-0.12511890368111317
 21
-4.2170488875748049
 31
0
  0
LINE
  5
357
330
352
100
AcDbEntity
  8
Plywoodparts
 62
7
100
AcDbLine
 10
-0.12511890368111317
 20
-4.2170488875748049
 30
0
 11
-0.12511890368111323
 21
-4.3350470283858016
 31
0
  0
LINE
  5
358
330
352
100
AcDbEntity
  8
Plywoodparts
 62
7
100
AcDbLine
 10
-0.12511890368111323
 20
-4.3350470283858016
 30
0
 11
4.8495283524999877
 21
-4.3350470283858016
 31
0
  0
LINE
  5
359
330
352
100
AcDbEntity
  8
Plywoodparts
 62
7
100
AcDbLine
 10
4.8495283524999877
 20
-4.3350470283858016
 30
0
 11
4.8495283524999877
 21
-4.2170488875748049
 31
0
  0
LINE
  5
35A
330
352
100
AcDbEntity
  8
Plywoodparts
 62
7
100
AcDbLine
 10
4.8495283524999877
 20
-4.2170488875748049
 30
0
 11
7.3759144562991992
 21
-4.2168245902637569
 31
0
  0
LINE
  5
35B
330
352
100
AcDbEntity
  8
Plywoodparts
 62
7
100
AcDbLine
 10
7.3759144562991992
 20
-4.2168245902637569
 30
0
 11
8.6573592204370016
 21
-0.00022429729525547674
 31
0
  0
LINE
  5
35C
330
352
100
AcDbEntity
  8
Plywoodparts
 62
7
100
AcDbLine
 10
8.6573592204370016
 20
-0.00022429729525547674
 30
0
 11
4.7244094488188892
 21
-5.7857329093575642E-16
 31
0
  0
LINE
  5
35D
330
352
100
AcDbEntity
  8
Plywoodparts
 62
7
100
AcDbLine
 10
4.7244094488188892
 20
-5.7857329093575642E-16
 30
0
 11
4.7244094488188892
 21
0.11799814081103163
 31
0
  0
LINE
  5
35E
330
352
100
AcDbEntity
  8
Plywoodparts
 62
7
100
AcDbLine
 10
4.7244094488188892
 20
0.11799814081103163
 30
0
 11
1.4450604544956928E-17
 21
0.11799814081103222
 31
0
  0
LINE
  5
35F
330
352
100
AcDbEntity
  8
Plywoodparts
 62
7
100
AcDbLine
 10
1.4450604544956928E-17
 20
0.11799814081103222
 30
0
 11
0
 21
0
 31
0
  0
ENDBLK
  5
360
330
352
100
AcDbEntity
  8
0
100
AcDbBlockEnd
  0
BLOCK
  5
362
330
361
100
AcDbEntity
  8
0
100
AcDbBlockBegin
  2
12
 70
64
 10
0
 20
0
 30
1
  3
12
  0
LINE
  5
363
330
361
100
AcDbEntity
  8
Plywoodparts
 62
7
100
AcDbLine
 10
0
 20
0
 30
0
 11
-13.149606299212593
 21
0
 31
0
  0
LINE
  5
364
330
361
100
AcDbEntity
  8
Plywoodparts
 62
7
100
AcDbLine
 10
-13.149606299212593
 20
0
 30
0
 11
-13.149606299212593
 21
-2.6377952755905483
 31
0
  0
LINE
  5
365
330
361
100
AcDbEntity
  8
Plywoodparts
 62
7
100
AcDbLine
 10
-13.149606299212593
 20
-2.6377952755905483
 30
0
 11
0
 21
-2.6377952755905483
 31
0
  0
LINE
  5
366
330
361
100
AcDbEntity
  8
Plywoodparts
 62
7
100
AcDbLine
 10
0
 20
-2.6377952755905483
 30
0
 11
0
 21
0
 31
0
  0
ENDBLK
  5
367
330
361
100
AcDbEntity
  8
0
100
AcDbBlockEnd
  0
BLOCK
  5
369
330
368
100
AcDbEntity
  8
0
100
AcDbBlockBegin
  2
11
 70
64
 10
0
 20
0
 30
1
  3
11
  0
LINE
  5
36A
330
368
100
AcDbEntity
  8
Plywoodparts
 62
7
100
AcDbLine
 10
0
 20
0
 30
0
 11
-9.097752844098423
 21
0.79595023742126558
 31
0
  0
LINE
  5
36B
330
368
100
AcDbEntity
  8
Plywoodparts
 62
7
100
AcDbLine
 10
-9.097752844098423
 20
0.79595023742126558
 30
0
 11
-9.097752844098423
 21
-1.8418450381692826
 31
0
  0
LINE
  5
36C
330
368
100
AcDbEntity
  8
Plywoodparts
 62
7
100
AcDbLine
 10
-9.097752844098423
 20
-1.8418450381692826
 30
0
 11
9.7485259084645719
 21
-1.488557965125977
 31
0
  0
LINE
  5
36D
330
368
100
AcDbEntity
  8
Plywoodparts
 62
7
100
AcDbLine
 10
9.7485259084645719
 20
-1.488557965125977
 30
0
 11
9.8037175907795344
 21
-0.85771414960234371
 31
0
  0
LINE
  5
36E
330
368
100
AcDbEntity
  8
Plywoodparts
 62
7
100
AcDbLine
 10
9.8037175907795344
 20
-0.85771414960234371
 30
0
 11
0.70596474668110432
 21
-0.061763912181078191
 31
0
  0
LINE
  5
36F
330
368
100
AcDbEntity
  8
Plywoodparts
 62
7
100
AcDbLine
 10
0.70596474668110432
 20
-0.061763912181078191
 30
0
 11
0.64420083449606824
 21
-0.76772865886221087
 31
0
  0
LINE
  5
370
330
368
100
AcDbEntity
  8
Plywoodparts
 62
7
100
AcDbLine
 10
0.64420083449606824
 20
-0.76772865886221087
 30
0
 11
-0.061763912181099521
 21
-0.7059647466771537
 31
0
  0
LINE
  5
371
330
368
100
AcDbEntity
  8
Plywoodparts
 62
7
100
AcDbLine
 10
-0.061763912181099521
 20
-0.7059647466771537
 30
0
 11
0
 21
0
 31
0
  0
ENDBLK
  5
372
330
368
100
AcDbEntity
  8
0
100
AcDbBlockEnd
  0
BLOCK
  5
374
330
373
100
AcDbEntity
  8
0
100
AcDbBlockBegin
  2
29
 70
64
 10
0
 20
0
 30
1
  3
29
  0
LINE
  5
375
330
373
100
AcDbEntity
  8
Plywoodparts
 62
7
100
AcDbLine
 10
0
 20
0
 30
0
 11
-3.6253554331417348
 21
-0.58964861448424766
 31
0
  0
LINE
  5
376
330
373
100
AcDbEntity
  8
Plywoodparts
 62
7
100
AcDbLine
 10
-3.6253554331417348
 20
-0.58964861448424766
 30
0
 11
-3.6293132723543304
 21
-1.3082659101692833
 31
0
  0
LINE
  5
377
330
373
100
AcDbEntity
  8
Plywoodparts
 62
7
100
AcDbLine
 10
-3.6293132723543304
 20
-1.3082659101692833
 30
0
 11
-4.1021861268936988
 21
-1.3851766651692692
 31
0
  0
LINE
  5
378
330
373
100
AcDbEntity
  8
Plywoodparts
 62
7
100
AcDbLine
 10
-4.1021861268936988
 20
-1.3851766651692692
 30
0
 11
-4.139070992480276
 21
-8.1452831530917535
 31
0
  0
LINE
  5
379
330
373
100
AcDbEntity
  8
Plywoodparts
 62
7
100
AcDbLine
 10
-4.139070992480276
 20
-8.1452831530917535
 30
0
 11
-1.4855600248366923
 21
-10.248559528609221
 31
0
  0
ARC
  5
37A
330
373
100
AcDbEntity
  8
Plywoodparts
 62
7
100
AcDbCircle
 10
1.6395409524539717
 20
-8.4555997605067432
 30
0
 40
3.6029100527624998
100
AcDbArc
 50
132.6319173380264
 51
209.84412561055194
  0
LINE
  5
37B
330
373
100
AcDbEntity
  8
Plywoodparts
 62
7
100
AcDbLine
 10
-0.80065928585940926
 20
-5.80486709853713
 30
0
 11
-0.80066227714566807
 21
-5.6867568623543292
 31
0
  0
LINE
  5
37C
330
373
100
AcDbEntity
  8
Plywoodparts
 62
7
100
AcDbLine
 10
-0.80066227714566807
 20
-5.6867568623543292
 30
0
 11
-0.384103824062996
 21
-5.6867463124881681
 31
0
  0
LINE
  5
37D
330
373
100
AcDbEntity
  8
Plywoodparts
 62
7
100
AcDbLine
 10
-0.384103824062996
 20
-5.6867463124881681
 30
0
 11
0.25281293855118064
 21
-1.5543778749448762
 31
0
  0
LINE
  5
37E
330
373
100
AcDbEntity
  8
Plywoodparts
 62
7
100
AcDbLine
 10
0.25281293855118064
 20
-1.5543778749448762
 30
0
 11
0
 21
0
 31
0
  0
CIRCLE
  5
37F
330
373
100
AcDbEntity
  8
Plywoodparts
 62
7
100
AcDbCircle
 10
-1.5973018169212585
 20
-4.6000436035117929
 30
0
 40
0.11811023629129881
  0
CIRCLE
  5
380
330
373
100
AcDbEntity
  8
Plywoodparts
 62
7
100
AcDbCircle
 10
-2.5802065974645663
 20
-4.548564191267702
 30
0
 40
0.11811023629129409
  0
CIRCLE
  5
381
330
373
100
AcDbEntity
  8
Plywoodparts
 62
7
100
AcDbCircle
 10
-2.0729564778070824
 20
-0.696144323775599
 30
0
 40
0.098425196850392915
  0
ENDBLK
  5
382
330
373
100
AcDbEntity
  8
0
100
AcDbBlockEnd
  0
BLOCK
  5
384
330
383
100
AcDbEntity
  8
0
100
AcDbBlockBegin
  2
8
 70
64
 10
0
 20
0
 30
1
  3
8
  0
LINE
  5
385
330
383
100
AcDbEntity
  8
Plywoodparts
 62
7
100
AcDbLine
 10
0
 20
0
 30
0
 11
0
 21
0.11811023622047401
 31
0
  0
LINE
  5
386
330
383
100
AcDbEntity
  8
Plywoodparts
 62
7
100
AcDbLine
 10
0
 20
0.11811023622047401
 30
0
 11
-2.5235873173492394
 21
0.1181102362217743
 31
0
  0
LINE
  5
387
330
383
100
AcDbEntity
  8
Plywoodparts
 62
7
100
AcDbLine
 10
-2.5235873173492394
 20
0.1181102362217743
 30
0
 11
-2.5604599015629788
 21
-1.3750868298818872
 31
0
  0
LINE
  5
388
330
383
100
AcDbEntity
  8
Plywoodparts
 62
7
100
AcDbLine
 10
-2.5604599015629788
 20
-1.3750868298818872
 30
0
 11
-2.0147431622401655
 21
-1.4638280646220423
 31
0
  0
LINE
  5
389
330
383
100
AcDbEntity
  8
Plywoodparts
 62
7
100
AcDbLine
 10
-2.0147431622401655
 20
-1.4638280646220423
 30
0
 11
-2.0959079748385818
 21
-2.5674770907125932
 31
0
  0
LINE
  5
38A
330
383
100
AcDbEntity
  8
Plywoodparts
 62
7
100
AcDbLine
 10
-2.0959079748385818
 20
-2.5674770907125932
 30
0
 11
0.49986231446064266
 21
-2.9895859321338492
 31
0
  0
LINE
  5
38B
330
383
100
AcDbEntity
  8
Plywoodparts
 62
7
100
AcDbLine
 10
0.49986231446064266
 20
-2.9895859321338492
 30
0
 11
0.51881969108268322
 21
-2.8730070070590514
 31
0
  0
LINE
  5
38C
330
383
100
AcDbEntity
  8
Plywoodparts
 62
7
100
AcDbLine
 10
0.51881969108268322
 20
-2.8730070070590514
 30
0
 11
1.9345587874469175
 21
-3.1032261416965312
 31
0
  0
ARC
  5
38D
330
383
100
AcDbEntity
  8
Plywoodparts
 62
7
100
AcDbCircle
 10
2.487323628090536
 20
0.29601691960236565
 30
0
 40
3.4438934883124013
100
AcDbArc
 50
260.76374478280013
 51
279.23625521716821
  0
LINE
  5
38E
330
383
100
AcDbEntity
  8
Plywoodparts
 62
7
100
AcDbLine
 10
3.0400884687322787
 20
-3.1032261416968439
 30
0
 11
4.4558275650984456
 21
-2.8730070070590514
 31
0
  0
LINE
  5
38F
330
383
100
AcDbEntity
  8
Plywoodparts
 62
7
100
AcDbLine
 10
4.4558275650984456
 20
-2.8730070070590514
 30
0
 11
4.4747849417204861
 21
-2.9895859321338492
 31
0
  0
LINE
  5
390
330
383
100
AcDbEntity
  8
Plywoodparts
 62
7
100
AcDbLine
 10
4.4747849417204861
 20
-2.9895859321338492
 30
0
 11
7.0705552310196822
 21
-2.5674770907125932
 31
0
  0
LINE
  5
391
330
383
100
AcDbEntity
  8
Plywoodparts
 62
7
100
AcDbLine
 10
7.0705552310196822
 20
-2.5674770907125932
 30
0
 11
6.9893904184212658
 21
-1.4638280646220423
 31
0
  0
LINE
  5
392
330
383
100
AcDbEntity
  8
Plywoodparts
 62
7
100
AcDbLine
 10
6.9893904184212658
 20
-1.4638280646220423
 30
0
 11
7.53510718153413
 21
-1.3750868292951992
 31
0
  0
LINE
  5
393
330
383
100
AcDbEntity
  8
Plywoodparts
 62
7
100
AcDbLine
 10
7.53510718153413
 20
-1.3750868292951992
 30
0
 11
7.498234573531505
 21
0.11811023622047401
 31
0
  0
LINE
  5
394
330
383
100
AcDbEntity
  8
Plywoodparts
 62
7
100
AcDbLine
 10
7.498234573531505
 20
0.11811023622047401
 30
0
 11
4.9746472561811
 21
0.11811023622047401
 31
0
  0
LINE
  5
395
330
383
100
AcDbEntity
  8
Plywoodparts
 62
7
100
AcDbLine
 10
4.9746472561811
 20
0.11811023622047401
 30
0
 11
4.9746472561811
 21
0
 31
0
  0
LINE
  5
396
330
383
100
AcDbEntity
  8
Plywoodparts
 62
7
100
AcDbLine
 10
4.9746472561811
 20
0
 30
0
 11
0
 21
0
 31
0
  0
ENDBLK
  5
397
330
383
100
AcDbEntity
  8
0
100
AcDbBlockEnd
  0
BLOCK
  5
399
330
398
100
AcDbEntity
  8
0
100
AcDbBlockBegin
  2
28
 70
64
 10
0
 20
0
 30
1
  3
28
  0
LINE
  5
39A
330
398
100
AcDbEntity
  8
Plywoodparts
 62
7
100
AcDbLine
 10
0
 20
0
 30
0
 11
-0.0039578392126032643
 21
-0.718617295688972
 31
0
  0
LINE
  5
39B
330
398
100
AcDbEntity
  8
Plywoodparts
 62
7
100
AcDbLine
 10
-0.0039578392126032643
 20
-0.718617295688972
 30
0
 11
-0.47683069374693343
 21
-0.79552805068436783
 31
0
  0
LINE
  5
39C
330
398
100
AcDbEntity
  8
Plywoodparts
 62
7
100
AcDbLine
 10
-0.47683069374693343
 20
-0.79552805068436783
 30
0
 11
-0.51371555933531088
 21
-7.5556345386082242
 31
0
  0
LINE
  5
39D
330
398
100
AcDbEntity
  8
Plywoodparts
 62
7
100
AcDbLine
 10
-0.51371555933531088
 20
-7.5556345386082242
 30
0
 11
2.13979540830769
 21
-9.65891091412633
 31
0
  0
ARC
  5
39E
330
398
100
AcDbEntity
  8
Plywoodparts
 62
7
100
AcDbCircle
 10
5.2697220410827565
 20
-7.8650537467167716
 30
0
 40
3.6075426904780432
100
AcDbArc
 50
132.65769514702427
 51
209.818347801496
  0
LINE
  5
39F
330
398
100
AcDbEntity
  8
Plywoodparts
 62
7
100
AcDbLine
 10
2.8251903115039445
 20
-5.2120123058976375
 30
0
 11
2.8251873202165418
 21
-5.0939020697126018
 31
0
  0
LINE
  5
3A0
330
398
100
AcDbEntity
  8
Plywoodparts
 62
7
100
AcDbLine
 10
2.8251873202165418
 20
-5.0939020697126018
 30
0
 11
3.2417457732991855
 21
-5.0938915198464549
 31
0
  0
LINE
  5
3A1
330
398
100
AcDbEntity
  8
Plywoodparts
 62
7
100
AcDbLine
 10
3.2417457732991855
 20
-5.0938915198464549
 30
0
 11
3.8781683716968587
 21
-0.96472926046062968
 31
0
  0
LINE
  5
3A2
330
398
100
AcDbEntity
  8
Plywoodparts
 62
7
100
AcDbLine
 10
3.8781683716968587
 20
-0.96472926046062968
 30
0
 11
3.6253554331456712
 21
0.58964861448031725
 31
0
  0
LINE
  5
3A3
330
398
100
AcDbEntity
  8
Plywoodparts
 62
7
100
AcDbLine
 10
3.6253554331456712
 20
0.58964861448031725
 30
0
 11
0
 21
0
 31
0
  0
CIRCLE
  5
3A4
330
398
100
AcDbEntity
  8
Plywoodparts
 62
7
100
AcDbCircle
 10
2.0280536181850257
 20
-4.0103949890393693
 30
0
 40
0.11811023629129802
  0
CIRCLE
  5
3A5
330
398
100
AcDbEntity
  8
Plywoodparts
 62
7
100
AcDbCircle
 10
1.045148837637782
 20
-3.9589155767952739
 30
0
 40
0.11811023629129409
  0
ENDBLK
  5
3A6
330
398
100
AcDbEntity
  8
0
100
AcDbBlockEnd
  0
BLOCK
  5
3A8
330
3A7
100
AcDbEntity
  8
0
100
AcDbBlockBegin
  2
31
 70
64
 10
0
 20
0
 30
1
  3
31
  0
LINE
  5
3A9
330
3A7
100
AcDbEntity
  8
Plywoodparts
 62
7
100
AcDbLine
 10
0
 20
0
 30
0
 11
-3.6257127642519675
 21
-0.58672362037009385
 31
0
  0
LINE
  5
3AA
330
3A7
100
AcDbEntity
  8
Plywoodparts
 62
7
100
AcDbLine
 10
-3.6257127642519675
 20
-0.58672362037009385
 30
0
 11
-3.6255386338543332
 21
-1.3045756401259891
 31
0
  0
LINE
  5
3AB
330
3A7
100
AcDbEntity
  8
Plywoodparts
 62
7
100
AcDbLine
 10
-3.6255386338543332
 20
-1.3045756401259891
 30
0
 11
-4.0979646375000023
 21
-1.3810250207519912
 31
0
  0
LINE
  5
3AC
330
3A7
100
AcDbEntity
  8
Plywoodparts
 62
7
100
AcDbLine
 10
-4.0979646375000023
 20
-1.3810250207519912
 30
0
 11
-4.0961274023890191
 21
-8.4814128317321718
 31
0
  0
LINE
  5
3AD
330
3A7
100
AcDbEntity
  8
Plywoodparts
 62
7
100
AcDbLine
 10
-4.0961274023890191
 20
-8.4814128317321718
 30
0
 11
-2.0894115206695703
 21
-10.324156181948212
 31
0
  0
ARC
  5
3AE
330
3A7
100
AcDbEntity
  8
Plywoodparts
 62
7
100
AcDbCircle
 10
0.988697370503821
 20
-8.7558241237087771
 30
0
 40
3.4546229592854405
100
AcDbArc
 50
128.08020064809739
 51
206.99936813900149
  0
LINE
  5
3AF
330
3A7
100
AcDbEntity
  8
Plywoodparts
 62
7
100
AcDbLine
 10
-1.141989365751416
 20
-6.0365238786515647
 30
0
 11
-1.1419892321338581
 21
-5.918413642429158
 31
0
  0
LINE
  5
3B0
330
3A7
100
AcDbEntity
  8
Plywoodparts
 62
7
100
AcDbLine
 10
-1.1419892321338581
 20
-5.918413642429158
 30
0
 11
-0.71269341254330654
 21
-5.9184141280944971
 31
0
  0
LINE
  5
3B1
330
3A7
100
AcDbEntity
  8
Plywoodparts
 62
7
100
AcDbLine
 10
-0.71269341254330654
 20
-5.9184141280944971
 30
0
 11
0.25156676565748259
 21
-1.5545800469685105
 31
0
  0
LINE
  5
3B2
330
3A7
100
AcDbEntity
  8
Plywoodparts
 62
7
100
AcDbLine
 10
0.25156676565748259
 20
-1.5545800469685105
 30
0
 11
0
 21
0
 31
0
  0
CIRCLE
  5
3B3
330
3A7
100
AcDbEntity
  8
Plywoodparts
 62
7
100
AcDbCircle
 10
-2.9177974995433069
 20
-4.7463566557283627
 30
0
 40
0.11811023622047559
  0
CIRCLE
  5
3B4
330
3A7
100
AcDbEntity
  8
Plywoodparts
 62
7
100
AcDbCircle
 10
-1.9348942240433107
 20
-4.7978647960079
 30
0
 40
0.11811023622046693
  0
CIRCLE
  5
3B5
330
3A7
100
AcDbEntity
  8
Plywoodparts
 62
7
100
AcDbCircle
 10
-2.4596906638267697
 20
-0.75697455600393926
 30
0
 40
0.0984251968503874
  0
ENDBLK
  5
3B6
330
3A7
100
AcDbEntity
  8
0
100
AcDbBlockEnd
  0
BLOCK
  5
3B8
330
3B7
100
AcDbEntity
  8
0
100
AcDbBlockBegin
  2
4
 70
64
 10
0
 20
0
 30
1
  3
4
  0
ARC
  5
3B9
330
3B7
100
AcDbEntity
  8
Plywoodparts
 62
7
100
AcDbCircle
 10
5.9055118110235085
 20
10.133875176721917
 30
0
 40
11.729044967409683
100
AcDbArc
 50
239.76852285463872
 51
300.23147714536253
  0
ARC
  5
3BA
330
3B7
100
AcDbEntity
  8
Plywoodparts
 62
7
100
AcDbCircle
 10
18.34416156639854
 20
-11.204334705926925
 30
0
 40
12.969927046917599
100
AcDbArc
 50
99.216890529695263
 51
120.2460429985675
  0
LINE
  5
3BB
330
3B7
100
AcDbEntity
  8
Plywoodparts
 62
7
100
AcDbLine
 10
16.266740025923585
 20
1.5981387795185651
 30
0
 11
17.323412802314834
 21
1.7699678173333107
 31
0
  0
LINE
  5
3BC
330
3B7
100
AcDbEntity
  8
Plywoodparts
 62
7
100
AcDbLine
 10
17.323412802314834
 20
1.7699678173333107
 30
0
 11
17.07065039006682
 21
3.3243539093215033
 31
0
  0
ARC
  5
3BD
330
3B7
100
AcDbEntity
  8
Plywoodparts
 62
7
100
AcDbCircle
 10
12.495249310723908
 20
14.288902585101029
 30
0
 40
11.880893177719882
100
AcDbArc
 50
270.00000000000188
 51
292.65030969609563
  0
LINE
  5
3BE
330
3B7
100
AcDbEntity
  8
Plywoodparts
 62
7
100
AcDbLine
 10
12.495249310724297
 20
2.4080094073811726
 30
0
 11
-0.6842256886772804
 21
2.4080094073805469
 31
0
  0
ARC
  5
3BF
330
3B7
100
AcDbEntity
  8
Plywoodparts
 62
7
100
AcDbCircle
 10
-0.68422568867586
 20
14.288902585100431
 30
0
 40
11.880893177719882
100
AcDbArc
 50
247.34969030389257
 51
269.99999999999312
  0
LINE
  5
3C0
330
3B7
100
AcDbEntity
  8
Plywoodparts
 62
7
100
AcDbLine
 10
-5.25962676802103
 20
3.324353909321843
 30
0
 11
-5.5123891802678386
 21
1.7699678173333664
 31
0
  0
LINE
  5
3C1
330
3B7
100
AcDbEntity
  8
Plywoodparts
 62
7
100
AcDbLine
 10
-5.5123891802678386
 20
1.7699678173333664
 30
0
 11
-4.4557164038741348
 21
1.5981387796758209
 31
0
  0
ARC
  5
3C2
330
3B7
100
AcDbEntity
  8
Plywoodparts
 62
7
100
AcDbCircle
 10
-6.5324596344449244
 20
-11.202443531871781
 30
0
 40
12.967951648599998
100
AcDbArc
 50
59.752337092121714
 51
80.784729376010077
  0
ENDBLK
  5
3C3
330
3B7
100
AcDbEntity
  8
0
100
AcDbBlockEnd
  0
BLOCK
  5
3C5
330
3C4
100
AcDbEntity
  8
0
100
AcDbBlockBegin
  2
22
 70
64
 10
0
 20
0
 30
1
  3
22
  0
LINE
  5
3C6
330
3C4
100
AcDbEntity
  8
Plywoodparts
 62
7
100
AcDbLine
 10
0
 20
0
 30
0
 11
9.4488188976378069
 21
1.1571465818715162E-15
 31
0
  0
LINE
  5
3C7
330
3C4
100
AcDbEntity
  8
Plywoodparts
 62
7
100
AcDbLine
 10
9.4488188976378069
 20
1.1571465818715162E-15
 30
0
 11
9.4488188976343679
 21
0.70866141732337806
 31
0
  0
ARC
  5
3C8
330
3C4
100
AcDbEntity
  8
Plywoodparts
 62
7
100
AcDbCircle
 10
11.095977867631405
 20
6.4960629921255535
 30
0
 40
6.017237710151103
100
AcDbArc
 50
179.99999999999588
 51
254.11305637878533
  0
LINE
  5
3C9
330
3C4
100
AcDbEntity
  8
Plywoodparts
 62
7
100
AcDbLine
 10
5.0787401574803246
 20
6.496062992125986
 30
0
 11
4.3700787401589585
 21
6.496062992125986
 31
0
  0
ARC
  5
3CA
330
3C4
100
AcDbEntity
  8
Plywoodparts
 62
7
100
AcDbCircle
 10
-1.6471589699921205
 20
6.4960629921264186
 30
0
 40
6.017237710151103
100
AcDbArc
 50
285.886943621166
 51
359.99999999999585
  0
LINE
  5
3CB
330
3C4
100
AcDbEntity
  8
Plywoodparts
 62
7
100
AcDbLine
 10
-8.6785993640363022E-17
 20
0.70866141732282983
 30
0
 11
0
 21
0
 31
0
  0
ENDBLK
  5
3CC
330
3C4
100
AcDbEntity
  8
0
100
AcDbBlockEnd
  0
BLOCK
  5
3CE
330
3CD
100
AcDbEntity
  8
0
100
AcDbBlockBegin
  2
13
 70
64
 10
0
 20
0
 30
1
  3
13
  0
ARC
  5
3CF
330
3CD
100
AcDbEntity
  8
Plywoodparts
 62
7
100
AcDbCircle
 10
0.036017911248023907
 20
0.11248438989204779
 30
0
 40
0.11811023622047323
100
AcDbArc
 50
252.24474500687632
 51
8.013980019789888E-10
  0
LINE
  5
3D0
330
3CD
100
AcDbEntity
  8
Plywoodparts
 62
7
100
AcDbLine
 10
0.1541281474684979
 20
0.1124843898936998
 30
0
 11
0.154128147468498
 21
0.95705232629527615
 31
0
  0
ARC
  5
3D1
330
3CD
100
AcDbEntity
  8
Plywoodparts
 62
7
100
AcDbCircle
 10
0.390348619909446
 20
0.95705232629444836
 30
0
 40
0.23622047244094527
100
AcDbArc
 50
137.06633942433322
 51
179.99999999979923
  0
ARC
  5
3D2
330
3CD
100
AcDbEntity
  8
Plywoodparts
 62
7
100
AcDbCircle
 10
-1.2238246084374107
 20
2.458802808401142
 30
0
 40
1.9685039370078741
100
AcDbArc
 50
317.06633942471655
 51
42.933660575327991
  0
ARC
  5
3D3
330
3CD
100
AcDbEntity
  8
Plywoodparts
 62
7
100
AcDbCircle
 10
0.39034861990944636
 20
3.9605532905078737
 30
0
 40
0.23622047244094568
100
AcDbArc
 50
180
 51
222.93366057530216
  0
LINE
  5
3D4
330
3CD
100
AcDbEntity
  8
Plywoodparts
 62
7
100
AcDbLine
 10
0.1541281474684984
 20
3.9605532905078737
 30
0
 11
0.15412814746849907
 21
9.3994665035708618
 31
0
  0
LINE
  5
3D5
330
3CD
100
AcDbEntity
  8
Plywoodparts
 62
7
100
AcDbLine
 10
0.15412814746849907
 20
9.3994665035708618
 30
0
 11
-1.0885557476889844
 21
9.3994665035708618
 31
0
  0
ARC
  5
3D6
330
3CD
100
AcDbEntity
  8
Plywoodparts
 62
7
100
AcDbCircle
 10
-1.0885557476879613
 20
9.2026161098700765
 30
0
 40
0.19685039370078777
100
AcDbArc
 50
90.000000000297817
 51
163.62323548240917
  0
LINE
  5
3D7
330
3CD
100
AcDbEntity
  8
Plywoodparts
 62
7
100
AcDbLine
 10
-1.2774196050078772
 20
9.258118550342525
 30
0
 11
-3.11246318163802
 21
3.0138272131197645
 31
0
  0
ARC
  5
3D8
330
3CD
100
AcDbEntity
  8
Plywoodparts
 62
7
100
AcDbCircle
 10
-1.2238246084365296
 20
2.4588028084032683
 30
0
 40
1.9685039370078741
100
AcDbArc
 50
163.62323548265138
 51
252.54239687626279
  0
LINE
  5
3D9
330
3CD
100
AcDbEntity
  8
Plywoodparts
 62
7
100
AcDbLine
 10
-1.8143757895393833
 20
0.58096973474803115
 30
0
 11
0
 21
0
 31
0
  0
CIRCLE
  5
3DA
330
3CD
100
AcDbEntity
  8
Plywoodparts
 62
7
100
AcDbCircle
 10
-0.31831279741339713
 20
8.1002539051456619
 30
0
 40
0.098425196850393692
  0
CIRCLE
  5
3DB
330
3CD
100
AcDbEntity
  8
Plywoodparts
 62
7
100
AcDbCircle
 10
-0.5742183092244193
 20
9.0254507555393655
 30
0
 40
0.0984251968503941
  0
CIRCLE
  5
3DC
330
3CD
100
AcDbEntity
  8
Plywoodparts
 62
7
100
AcDbCircle
 10
-1.3025647659173378
 20
8.1002539051456619
 30
0
 40
0.0984251968503941
  0
CIRCLE
  5
3DD
330
3CD
100
AcDbEntity
  8
Plywoodparts
 62
7
100
AcDbCircle
 10
-1.2238246084370128
 20
2.4588028084015754
 30
0
 40
0.11811023622047284
  0
ENDBLK
  5
3DE
330
3CD
100
AcDbEntity
  8
0
100
AcDbBlockEnd
  0
BLOCK
  5
3E0
330
3DF
100
AcDbEntity
  8
0
100
AcDbBlockBegin
  2
15
 70
64
 10
0
 20
0
 30
1
  3
15
  0
ARC
  5
3E1
330
3DF
100
AcDbEntity
  8
Plywoodparts
 62
7
100
AcDbCircle
 10
0
 20
-0.19685039370078883
 30
0
 40
0.19685039370078777
100
AcDbArc
 50
90
 51
163.62323548260341
  0
LINE
  5
3E2
330
3DF
100
AcDbEntity
  8
Plywoodparts
 62
7
100
AcDbLine
 10
-0.1888638573201433
 20
-0.14134795322896918
 30
0
 11
-2.0239074339488639
 21
-6.3856392904488182
 31
0
  0
ARC
  5
3E3
330
3DF
100
AcDbEntity
  8
Plywoodparts
 62
7
100
AcDbCircle
 10
-0.13526886074848218
 20
-6.9406636951691745
 30
0
 40
1.9685039370078741
100
AcDbArc
 50
163.62323548253448
 51
252.54239687631224
  0
LINE
  5
3E4
330
3DF
100
AcDbEntity
  8
Plywoodparts
 62
7
100
AcDbLine
 10
-0.72582004184971538
 20
-8.8184967688249252
 30
0
 11
1.006463422716507
 21
-9.3731802421811032
 31
0
  0
LINE
  5
3E5
330
3DF
100
AcDbEntity
  8
Plywoodparts
 62
7
100
AcDbLine
 10
1.006463422716507
 20
-9.3731802421811032
 30
0
 11
1.0064634227165075
 21
-8.4645669291338628
 31
0
  0
LINE
  5
3E6
330
3DF
100
AcDbEntity
  8
Plywoodparts
 62
7
100
AcDbLine
 10
1.0064634227165075
 20
-8.4645669291338628
 30
0
 11
1.2426838951574555
 21
-8.4645669291338628
 31
0
  0
LINE
  5
3E7
330
3DF
100
AcDbEntity
  8
Plywoodparts
 62
7
100
AcDbLine
 10
1.2426838951574555
 20
-8.4645669291338628
 30
0
 11
1.2426838951574555
 21
-8.4424141772755981
 31
0
  0
ARC
  5
3E8
330
3DF
100
AcDbEntity
  8
Plywoodparts
 62
7
100
AcDbCircle
 10
1.4789043675984035
 20
-8.4424141772755981
 30
0
 40
0.23622047244094449
100
AcDbArc
 50
137.06633942470222
 51
180
  0
ARC
  5
3E9
330
3DF
100
AcDbEntity
  8
Plywoodparts
 62
7
100
AcDbCircle
 10
-0.13526886074845376
 20
-6.9406636951688636
 30
0
 40
1.9685039370078741
100
AcDbArc
 50
317.06633942467141
 51
42.933660575283021
  0
ARC
  5
3EA
330
3DF
100
AcDbEntity
  8
Plywoodparts
 62
7
100
AcDbCircle
 10
1.4789043675984035
 20
-5.4389132130621611
 30
0
 40
0.23622047244094568
100
AcDbArc
 50
180.00000000020165
 51
222.93366057567172
  0
LINE
  5
3EB
330
3DF
100
AcDbEntity
  8
Plywoodparts
 62
7
100
AcDbLine
 10
1.2426838951574555
 20
-5.4389132130629925
 30
0
 11
1.242683895157455
 21
-1.9685039370078774
 31
0
  0
LINE
  5
3EC
330
3DF
100
AcDbEntity
  8
Plywoodparts
 62
7
100
AcDbLine
 10
1.242683895157455
 20
-1.9685039370078774
 30
0
 11
1.124573658936981
 21
-1.9685039370078774
 31
0
  0
LINE
  5
3ED
330
3DF
100
AcDbEntity
  8
Plywoodparts
 62
7
100
AcDbLine
 10
1.124573658936981
 20
-1.9685039370078774
 30
0
 11
1.1245736589369815
 21
-0.98425196850393692
 31
0
  0
LINE
  5
3EE
330
3DF
100
AcDbEntity
  8
Plywoodparts
 62
7
100
AcDbLine
 10
1.1245736589369815
 20
-0.98425196850393692
 30
0
 11
1.0064634227165075
 21
-0.98425196850393692
 31
0
  0
LINE
  5
3EF
330
3DF
100
AcDbEntity
  8
Plywoodparts
 62
7
100
AcDbLine
 10
1.0064634227165075
 20
-0.98425196850393692
 30
0
 11
1.0064634227165072
 21
0
 31
0
  0
LINE
  5
3F0
330
3DF
100
AcDbEntity
  8
Plywoodparts
 62
7
100
AcDbLine
 10
1.0064634227165072
 20
0
 30
0
 11
0
 21
0
 31
0
  0
CIRCLE
  5
3F1
330
3DF
100
AcDbEntity
  8
Plywoodparts
 62
7
100
AcDbCircle
 10
0.514337438464537
 20
-0.3740157480314999
 30
0
 40
0.0984251968503933
  0
CIRCLE
  5
3F2
330
3DF
100
AcDbEntity
  8
Plywoodparts
 62
7
100
AcDbCircle
 10
-0.13526886074805586
 20
-6.94066369516929
 30
0
 40
0.11811023622047284
  0
CIRCLE
  5
3F3
330
3DF
100
AcDbEntity
  8
Plywoodparts
 62
7
100
AcDbCircle
 10
-0.21400901822838137
 20
-1.2992125984251963
 30
0
 40
0.0984251968503941
  0
CIRCLE
  5
3F4
330
3DF
100
AcDbEntity
  8
Plywoodparts
 62
7
100
AcDbCircle
 10
0.77024295027555911
 20
-1.2992125984251963
 30
0
 40
0.0984251968503941
  0
ENDBLK
  5
3F5
330
3DF
100
AcDbEntity
  8
0
100
AcDbBlockEnd
  0
BLOCK
  5
3F7
330
3F6
100
AcDbEntity
  8
0
100
AcDbBlockBegin
  2
14
 70
64
 10
0
 20
0
 30
1
  3
14
  0
LINE
  5
3F8
330
3F6
100
AcDbEntity
  8
Plywoodparts
 62
7
100
AcDbLine
 10
0
 20
0
 30
0
 11
-1.9685039370078812
 21
-2.4107220455656648E-16
 31
0
  0
LINE
  5
3F9
330
3F6
100
AcDbEntity
  8
Plywoodparts
 62
7
100
AcDbLine
 10
-1.9685039370078812
 20
-2.4107220455656648E-16
 30
0
 11
-3.266591329106546
 21
-4.4171353534432249
 31
0
  0
ARC
  5
3FA
330
3F6
100
AcDbEntity
  8
Plywoodparts
 62
7
100
AcDbCircle
 10
-1.3779527559050273
 20
-4.972159758159723
 30
0
 40
1.9685039370078741
100
AcDbArc
 50
163.62323548265155
 51
252.54239687626279
  0
LINE
  5
3FB
330
3F6
100
AcDbEntity
  8
Plywoodparts
 62
7
100
AcDbLine
 10
-1.9685039370078803
 20
-6.8499928318149585
 30
0
 11
-1.9685039370078803
 21
-6.4960629921259816
 31
0
  0
LINE
  5
3FC
330
3F6
100
AcDbEntity
  8
Plywoodparts
 62
7
100
AcDbLine
 10
-1.9685039370078803
 20
-6.4960629921259816
 30
0
 11
7.9553827503666618E-16
 21
-6.4960629921259816
 31
0
  0
LINE
  5
3FD
330
3F6
100
AcDbEntity
  8
Plywoodparts
 62
7
100
AcDbLine
 10
7.9553827503666618E-16
 20
-6.4960629921259816
 30
0
 11
7.9282534537111277E-16
 21
-6.4739102402677133
 31
0
  0
ARC
  5
3FE
330
3F6
100
AcDbEntity
  8
Plywoodparts
 62
7
100
AcDbCircle
 10
0.23622047244094882
 20
-6.4739102402685411
 30
0
 40
0.23622047244094488
100
AcDbArc
 50
137.06633942433291
 51
179.99999999979923
  0
ARC
  5
3FF
330
3F6
100
AcDbEntity
  8
Plywoodparts
 62
7
100
AcDbCircle
 10
-1.3779527559059652
 20
-4.9721597581618475
 30
0
 40
1.9685039370078741
100
AcDbArc
 50
317.06633942471774
 51
42.933660575327984
  0
ARC
  5
400
330
3F6
100
AcDbEntity
  8
Plywoodparts
 62
7
100
AcDbCircle
 10
0.23622047244094843
 20
-3.4704092760551148
 30
0
 40
0.23622047244094568
100
AcDbArc
 50
180
 51
222.93366057529309
  0
LINE
  5
401
330
3F6
100
AcDbEntity
  8
Plywoodparts
 62
7
100
AcDbLine
 10
4.2500256116521795E-16
 20
-3.4704092760551148
 30
0
 11
0
 21
0
 31
0
  0
CIRCLE
  5
402
330
3F6
100
AcDbEntity
  8
Plywoodparts
 62
7
100
AcDbCircle
 10
-1.3779527559055105
 20
-4.9721597581614141
 30
0
 40
0.11811023622047284
  0
ENDBLK
  5
403
330
3F6
100
AcDbEntity
  8
0
100
AcDbBlockEnd
  0
BLOCK
  5
405
330
404
100
AcDbEntity
  8
0
100
AcDbBlockBegin
  2
33
 70
64
 10
0
 20
0
 30
1
  3
33
  0
LINE
  5
406
330
404
100
AcDbEntity
  8
Plywoodparts
 62
7
100
AcDbLine
 10
0
 20
0
 30
0
 11
6.2556949855748059
 21
-1.1811023622047256
 31
0
  0
LINE
  5
407
330
404
100
AcDbEntity
  8
Plywoodparts
 62
7
100
AcDbLine
 10
6.2556949855748059
 20
-1.1811023622047256
 30
0
 11
6.255694985574805
 21
2.7559055118110227
 31
0
  0
LINE
  5
408
330
404
100
AcDbEntity
  8
Plywoodparts
 62
7
100
AcDbLine
 10
6.255694985574805
 20
2.7559055118110227
 30
0
 11
-0.018445775653532431
 21
1.5748031496062964
 31
0
  0
LINE
  5
409
330
404
100
AcDbEntity
  8
Plywoodparts
 62
7
100
AcDbLine
 10
-0.018445775653532431
 20
1.5748031496062964
 30
0
 11
0
 21
0
 31
0
  0
CIRCLE
  5
40A
330
404
100
AcDbEntity
  8
Plywoodparts
 62
7
100
AcDbCircle
 10
5.8896637318700868
 20
0.575207043933077
 30
0
 40
0.098425196850393692
  0
CIRCLE
  5
40B
330
404
100
AcDbEntity
  8
Plywoodparts
 62
7
100
AcDbCircle
 10
5.8254556502677275
 20
1.1622573141496135
 30
0
 40
0.098425196850411817
  0
CIRCLE
  5
40C
330
404
100
AcDbEntity
  8
Plywoodparts
 62
7
100
AcDbCircle
 10
4.3312289885118176
 20
0.70179116687795362
 30
0
 40
0.11811023622047244
  0
ENDBLK
  5
40D
330
404
100
AcDbEntity
  8
0
100
AcDbBlockEnd
  0
BLOCK
  5
40F
330
40E
100
AcDbEntity
  8
0
100
AcDbBlockBegin
  2
42
 70
64
 10
0
 20
0
 30
1
  3
42
  0
LINE
  5
410
330
40E
100
AcDbEntity
  8
Plywoodparts
 62
7
100
AcDbLine
 10
0
 20
0
 30
0
 11
-2.410722045565629E-17
 21
0.39370078740157055
 31
0
  0
LINE
  5
411
330
40E
100
AcDbEntity
  8
Plywoodparts
 62
7
100
AcDbLine
 10
-2.410722045565629E-17
 20
0.39370078740157055
 30
0
 11
-2.7471167648779513
 21
3.9111824360078624
 31
0
  0
LINE
  5
412
330
40E
100
AcDbEntity
  8
Plywoodparts
 62
7
100
AcDbLine
 10
-2.7471167648779513
 20
3.9111824360078624
 30
0
 11
-3.5228115877440946
 21
3.3053728070748032
 31
0
  0
LINE
  5
413
330
40E
100
AcDbEntity
  8
Plywoodparts
 62
7
100
AcDbLine
 10
-3.5228115877440946
 20
3.3053728070748032
 30
0
 11
-3.2804822112874068
 21
2.99508780372048
 31
0
  0
LINE
  5
414
330
40E
100
AcDbEntity
  8
Plywoodparts
 62
7
100
AcDbLine
 10
-3.2804822112874068
 20
2.99508780372048
 30
0
 11
-6.611367599125991
 21
0.39370078740157011
 31
0
  0
LINE
  5
415
330
40E
100
AcDbEntity
  8
Plywoodparts
 62
7
100
AcDbLine
 10
-6.611367599125991
 20
0.39370078740157011
 30
0
 11
-0.9842519685039407
 21
0.3937007874015705
 31
0
  0
LINE
  5
416
330
40E
100
AcDbEntity
  8
Plywoodparts
 62
7
100
AcDbLine
 10
-0.9842519685039407
 20
0.3937007874015705
 30
0
 11
-0.98425196850394059
 21
-6.02680511391416E-17
 31
0
  0
LINE
  5
417
330
40E
100
AcDbEntity
  8
Plywoodparts
 62
7
100
AcDbLine
 10
-0.98425196850394059
 20
-6.02680511391416E-17
 30
0
 11
0
 21
0
 31
0
  0
CIRCLE
  5
418
330
40E
100
AcDbEntity
  8
Plywoodparts
 62
7
100
AcDbCircle
 10
-2.5047807070826811
 20
2.0260857280826765
 30
0
 40
0.23622047244094449
  0
ENDBLK
  5
419
330
40E
100
AcDbEntity
  8
0
100
AcDbBlockEnd
  0
BLOCK
  5
41B
330
41A
100
AcDbEntity
  8
0
100
AcDbBlockBegin
  2
48
 70
64
 10
0
 20
0
 30
1
  3
48
  0
LINE
  5
41C
330
41A
100
AcDbEntity
  8
Plywoodparts
 62
7
100
AcDbLine
 10
0
 20
0
 30
0
 11
6.8033673389370488
 21
4.527559055119923
 31
0
  0
LINE
  5
41D
330
41A
100
AcDbEntity
  8
Plywoodparts
 62
7
100
AcDbLine
 10
6.8033673389370488
 20
4.527559055119923
 30
0
 11
6.7141202993833495
 21
6.8869066218201738
 31
0
  0
ARC
  5
41E
330
41A
100
AcDbEntity
  8
Plywoodparts
 62
7
100
AcDbCircle
 10
845.02676824184221
 20
36.277024522554306
 30
0
 40
838.82767880567724
100
AcDbArc
 50
178.98949040631297
 51
182.00789087003332
  0
ARC
  5
41F
330
41A
100
AcDbEntity
  8
Plywoodparts
 62
7
100
AcDbCircle
 10
742.08154624585416
 20
37.206667997486889
 30
0
 40
735.88260553685041
100
AcDbArc
 50
177.05769936761138
 51
178.92050468804925
  0
LINE
  5
420
330
41A
100
AcDbEntity
  8
Plywoodparts
 62
7
100
AcDbLine
 10
7.1690304788281134
 20
74.979717923161928
 30
0
 11
6.5545670957556714
 21
75.0048566414269
 31
0
  0
ARC
  5
421
330
41A
100
AcDbEntity
  8
Plywoodparts
 62
7
100
AcDbCircle
 10
6.5489343739595283
 20
74.867176539668208
 30
0
 40
0.1377952755905496
100
AcDbArc
 50
87.657240923299639
 51
162.10709001756339
  0
LINE
  5
422
330
41A
100
AcDbEntity
  8
Plywoodparts
 62
7
100
AcDbLine
 10
6.4178039209823625
 20
74.909512603220179
 30
0
 11
5.6375404273422811
 21
72.492747869194631
 31
0
  0
ARC
  5
423
330
41A
100
AcDbEntity
  8
Plywoodparts
 62
7
100
AcDbCircle
 10
5.4689441306571256
 20
72.547179950903654
 30
0
 40
0.17716535433072086
100
AcDbArc
 50
193.20739183027527
 51
342.10709001778724
  0
LINE
  5
424
330
41A
100
AcDbEntity
  8
Plywoodparts
 62
7
100
AcDbLine
 10
5.2964649000788571
 20
72.506701835900117
 30
0
 11
4.71622629008244
 21
74.979126972194564
 31
0
  0
ARC
  5
425
330
41A
100
AcDbEntity
  8
Plywoodparts
 62
7
100
AcDbCircle
 10
4.5820757774097247
 20
74.947643993861533
 30
0
 40
0.13779527559055158
100
AcDbArc
 50
13.207391828969909
 51
162.10709001944892
  0
LINE
  5
426
330
41A
100
AcDbEntity
  8
Plywoodparts
 62
7
100
AcDbLine
 10
4.4509453244311805
 20
74.989980057409184
 30
0
 11
3.6706818307911004
 21
72.5732153233875
 31
0
  0
ARC
  5
427
330
41A
100
AcDbEntity
  8
Plywoodparts
 62
7
100
AcDbCircle
 10
3.5020855341054324
 20
72.62764740509499
 30
0
 40
0.17716535433072519
100
AcDbArc
 50
193.20739183105587
 51
342.10709001831054
  0
LINE
  5
428
330
41A
100
AcDbEntity
  8
Plywoodparts
 62
7
100
AcDbLine
 10
3.3296063035276764
 20
72.5871692900891
 30
0
 11
2.7493676935273226
 21
75.05959442638752
 31
0
  0
ARC
  5
429
330
41A
100
AcDbEntity
  8
Plywoodparts
 62
7
100
AcDbCircle
 10
2.6152171808562579
 20
75.028111448047355
 30
0
 40
0.13779527559055591
100
AcDbArc
 50
13.207391832014503
 51
162.10709001636792
  0
LINE
  5
42A
330
41A
100
AcDbEntity
  8
Plywoodparts
 62
7
100
AcDbLine
 10
2.484086727879999
 20
75.070447511602055
 30
0
 11
1.7038232342359829
 21
72.6536827775765
 31
0
  0
ARC
  5
42B
330
41A
100
AcDbEntity
  8
Plywoodparts
 62
7
100
AcDbCircle
 10
1.5352269375508256
 20
72.708114859285558
 30
0
 40
0.17716535433072717
100
AcDbArc
 50
193.20739183028434
 51
342.10709001777866
  0
LINE
  5
42C
330
41A
100
AcDbEntity
  8
Plywoodparts
 62
7
100
AcDbLine
 10
1.3627477069725589
 20
72.667636744281992
 30
0
 11
0.78250909697614135
 21
75.1400618805765
 31
0
  0
ARC
  5
42D
330
41A
100
AcDbEntity
  8
Plywoodparts
 62
7
100
AcDbCircle
 10
0.64835858430342286
 20
75.108578902243437
 30
0
 40
0.13779527559053897
100
AcDbArc
 50
13.207391828981077
 51
162.10709001945494
  0
LINE
  5
42E
330
41A
100
AcDbEntity
  8
Plywoodparts
 62
7
100
AcDbLine
 10
0.51722813132491952
 20
75.15091496579106
 30
0
 11
-0.2630353623151982
 21
72.7341502317694
 31
0
  0
ARC
  5
42F
330
41A
100
AcDbEntity
  8
Plywoodparts
 62
7
100
AcDbCircle
 10
-0.43163165900086753
 20
72.7885823134769
 30
0
 40
0.17716535433072086
100
AcDbArc
 50
193.20739183106477
 51
342.1070900183106
  0
LINE
  5
430
330
41A
100
AcDbEntity
  8
Plywoodparts
 62
7
100
AcDbLine
 10
-0.604110889578624
 20
72.748104198470969
 30
0
 11
-1.1843494995750417
 21
75.2205293347694
 31
0
  0
ARC
  5
431
330
41A
100
AcDbEntity
  8
Plywoodparts
 62
7
100
AcDbCircle
 10
-1.318500012247245
 20
75.189046356433948
 30
0
 40
0.13779527559054447
100
AcDbArc
 50
13.207391829996459
 51
162.10709002012771
  0
LINE
  5
432
330
41A
100
AcDbEntity
  8
Plywoodparts
 62
7
100
AcDbLine
 10
-1.4496304652262608
 20
75.231382419980036
 30
0
 11
-2.2298939588663784
 21
72.814617685958382
 31
0
  0
ARC
  5
433
330
41A
100
AcDbEntity
  8
Plywoodparts
 62
7
100
AcDbCircle
 10
-2.3984902555529546
 20
72.869049767663142
 30
0
 40
0.17716535433074293
100
AcDbArc
 50
267.65724092499551
 51
342.10709001924045
  0
LINE
  5
434
330
41A
100
AcDbEntity
  8
Plywoodparts
 62
7
100
AcDbLine
 10
-2.4057323264284647
 20
72.692032493973329
 30
0
 11
-3.4288472047758276
 21
72.73388982410799
 31
0
  0
ARC
  5
435
330
41A
100
AcDbEntity
  8
Plywoodparts
 62
7
100
AcDbCircle
 10
385.06668616206679
 20
61.73416388913909
 30
0
 40
388.65122335666575
100
AcDbArc
 50
178.37818073570787
 51
182.70013434921881
  0
ARC
  5
436
330
41A
100
AcDbEntity
  8
Plywoodparts
 62
7
100
AcDbCircle
 10
642.41637716453931
 20
73.876603562113885
 30
0
 40
646.28721129685823
100
AcDbArc
 50
182.70062419643728
 51
184.50782256309589
  0
ARC
  5
437
330
41A
100
AcDbEntity
  8
Plywoodparts
 62
7
100
AcDbCircle
 10
3929.9674333692124
 20
333.52914561833353
 30
0
 40
3944.0760696884645
100
AcDbArc
 50
184.51455717874347
 51
184.78551121454021
  0
LINE
  5
438
330
41A
100
AcDbEntity
  8
Plywoodparts
 62
7
100
AcDbLine
 10
-0.35953819797279635
 20
4.49124497354012
 30
0
 11
-0.097382812271535973
 21
1.2560713395970424
 31
0
  0
LINE
  5
439
330
41A
100
AcDbEntity
  8
Plywoodparts
 62
7
100
AcDbLine
 10
-0.097382812271535973
 20
1.2560713395970424
 30
0
 11
0
 21
0
 31
0
  0
CIRCLE
  5
43A
330
41A
100
AcDbEntity
  8
Plywoodparts
 62
7
100
AcDbCircle
 10
4.9604439225233827
 20
71.151911596233987
 30
0
 40
0.098425196850392513
  0
CIRCLE
  5
43B
330
41A
100
AcDbEntity
  8
Plywoodparts
 62
7
100
AcDbCircle
 10
0.41071322767692842
 20
5.8912124965843873
 30
0
 40
0.098425196849903154
  0
ENDBLK
  5
43C
330
41A
100
AcDbEntity
  8
0
100
AcDbBlockEnd
  0
BLOCK
  5
43E
330
43D
100
AcDbEntity
  8
0
100
AcDbBlockBegin
  2
52
 70
64
 10
0
 20
0
 30
1
  3
52
  0
LINE
  5
43F
330
43D
100
AcDbEntity
  8
Plywoodparts
 62
7
100
AcDbLine
 10
0
 20
0
 30
0
 11
0.64235422984000268
 21
-2.4570193207456441
 31
0
  0
ARC
  5
440
330
43D
100
AcDbEntity
  8
Plywoodparts
 62
7
100
AcDbCircle
 10
0.79471378815967286
 20
-2.4171869897976421
 30
0
 40
0.15748031496062992
100
AcDbArc
 50
194.65127644425709
 51
343.55097463618381
  0
LINE
  5
441
330
43D
100
AcDbEntity
  8
Plywoodparts
 62
7
100
AcDbLine
 10
0.94574875458337759
 20
-2.4617794613315027
 30
0
 11
1.6648671698418944
 21
-0.026121110093299343
 31
0
  0
ARC
  5
442
330
43D
100
AcDbEntity
  8
Plywoodparts
 62
7
100
AcDbCircle
 10
1.8159021362647749
 20
-0.070713581629916811
 30
0
 40
0.15748031496062478
100
AcDbArc
 50
14.65127644575483
 51
163.55097463513692
  0
LINE
  5
443
330
43D
100
AcDbEntity
  8
Plywoodparts
 62
7
100
AcDbLine
 10
1.96826169458339
 20
-0.030881250677935762
 30
0
 11
2.6106159244266149
 21
-2.4879005714228408
 31
0
  0
ARC
  5
444
330
43D
100
AcDbEntity
  8
Plywoodparts
 62
7
100
AcDbCircle
 10
2.7629754827444413
 20
-2.448068240467705
 30
0
 40
0.15748031496062992
100
AcDbArc
 50
194.65127644693786
 51
343.55097463350063
  0
LINE
  5
445
330
43D
100
AcDbEntity
  8
Plywoodparts
 62
7
100
AcDbLine
 10
2.9140104491660712
 20
-2.4926607120086426
 30
0
 11
3.6331288644285067
 21
-0.057002360770496141
 31
0
  0
ARC
  5
446
330
43D
100
AcDbEntity
  8
Plywoodparts
 62
7
100
AcDbCircle
 10
3.7841638308513872
 20
-0.10159483230708519
 30
0
 40
0.1574803149606252
100
AcDbArc
 50
14.65127644575483
 51
163.55097463514684
  0
LINE
  5
447
330
43D
100
AcDbEntity
  8
Plywoodparts
 62
7
100
AcDbLine
 10
3.9365233891700022
 20
-0.061762501355104138
 30
0
 11
4.5788776190132277
 21
-2.5187818221039313
 31
0
  0
ARC
  5
448
330
43D
100
AcDbEntity
  8
Plywoodparts
 62
7
100
AcDbCircle
 10
4.7312371773305
 20
-2.4789494911468344
 30
0
 40
0.15748031496062992
100
AcDbArc
 50
194.65127644767918
 51
343.55097463423209
  0
LINE
  5
449
330
43D
100
AcDbEntity
  8
Plywoodparts
 62
7
100
AcDbLine
 10
4.8822721437526839
 20
-2.5235419626858393
 30
0
 11
5.601390559015119
 21
-0.087883611447607674
 31
0
  0
ARC
  5
44A
330
43D
100
AcDbEntity
  8
Plywoodparts
 62
7
100
AcDbCircle
 10
5.7524255254359069
 20
-0.13247608299133057
 30
0
 40
0.15748031496063386
100
AcDbArc
 50
14.651276448415599
 51
163.55097463244198
  0
LINE
  5
44B
330
43D
100
AcDbEntity
  8
Plywoodparts
 62
7
100
AcDbLine
 10
5.9047850837526781
 20
-0.092643752032272514
 30
0
 11
6.5471393135958644
 21
-2.5496630727810996
 31
0
  0
ARC
  5
44C
330
43D
100
AcDbEntity
  8
Plywoodparts
 62
7
100
AcDbCircle
 10
6.6994988719141064
 20
-2.5098307418275554
 30
0
 40
0.15748031496065118
100
AcDbArc
 50
194.65127644633938
 51
269.10112554162652
  0
LINE
  5
44D
330
43D
100
AcDbEntity
  8
Plywoodparts
 62
7
100
AcDbLine
 10
6.6970283718629213
 20
-2.6672916773944721
 30
0
 11
7.0560648839611426
 21
-2.672924818840555
 31
0
  0
ARC
  5
44E
330
43D
100
AcDbEntity
  8
Plywoodparts
 62
7
100
AcDbCircle
 10
-855.10597354375511
 20
-0.46528318637673827
 30
0
 40
862.16486485324413
100
AcDbArc
 50
359.85328944428596
 51
2.1037635240991142
  0
ARC
  5
44F
330
43D
100
AcDbEntity
  8
Plywoodparts
 62
7
100
AcDbCircle
 10
-6496.020003637057
 20
-190.8092688045071
 30
0
 40
6506.28607776
100
AcDbArc
 50
1.9553028458942843
 51
2.2049891176603071
  0
ARC
  5
450
330
43D
100
AcDbEntity
  8
Plywoodparts
 62
7
100
AcDbCircle
 10
-1301.8094176981845
 20
8.14315476957559
 30
0
 40
1308.2671968429959
100
AcDbArc
 50
2.2505891231877095
 51
3.695219988965424
  0
LINE
  5
451
330
43D
100
AcDbEntity
  8
Plywoodparts
 62
7
100
AcDbLine
 10
3.7378897217999176
 20
92.459739282113389
 30
0
 11
3.7315260191645772
 21
92.557334939778741
 31
0
  0
LINE
  5
452
330
43D
100
AcDbEntity
  8
Plywoodparts
 62
7
100
AcDbLine
 10
3.7315260191645772
 20
92.557334939778741
 30
0
 11
1.2397812926564107
 21
92.797351367657484
 31
0
  0
LINE
  5
453
330
43D
100
AcDbEntity
  8
Plywoodparts
 62
7
100
AcDbLine
 10
1.2397812926564107
 20
92.797351367657484
 30
0
 11
-1.2526829780071644
 21
93.029775884660637
 31
0
  0
LINE
  5
454
330
43D
100
AcDbEntity
  8
Plywoodparts
 62
7
100
AcDbLine
 10
-1.2526829780071644
 20
93.029775884660637
 30
0
 11
-1.2530935283858711
 21
92.929102025331986
 31
0
  0
ARC
  5
455
330
43D
100
AcDbEntity
  8
Plywoodparts
 62
7
100
AcDbCircle
 10
-1910.6369534261885
 20
36.2672541590374
 30
0
 40
1910.2244081368663
100
AcDbArc
 50
0.71799828853534575
 51
1.6997798747026227
  0
ARC
  5
456
330
43D
100
AcDbEntity
  8
Plywoodparts
 62
7
100
AcDbCircle
 10
-2407.7970666919323
 20
28.220579544715761
 30
0
 40
2407.4470044063069
100
AcDbArc
 50
359.33128759056467
 51
0.7612198159948923
  0
LINE
  5
457
330
43D
100
AcDbEntity
  8
Plywoodparts
 62
7
100
AcDbLine
 10
-0.51402885512132812
 20
0.12334181458976436
 30
0
 11
-0.14988905826390567
 21
0.11762860461340094
 31
0
  0
ARC
  5
458
330
43D
100
AcDbEntity
  8
Plywoodparts
 62
7
100
AcDbCircle
 10
-0.15235955831818515
 20
-0.039832330953544243
 30
0
 40
0.15748031496062953
100
AcDbArc
 50
14.65127644634463
 51
89.10112554050103
  0
CIRCLE
  5
459
330
43D
100
AcDbEntity
  8
Plywoodparts
 62
7
100
AcDbCircle
 10
1.7581282431739453
 20
4.025184983223653
 30
0
 40
0.098425196785470084
  0
CIRCLE
  5
45A
330
43D
100
AcDbEntity
  8
Plywoodparts
 62
7
100
AcDbCircle
 10
2.5408719504455854
 20
90.7026719598772
 30
0
 40
0.0984251967262803
  0
ENDBLK
  5
45B
330
43D
100
AcDbEntity
  8
0
100
AcDbBlockEnd
  0
BLOCK
  5
45D
330
45C
100
AcDbEntity
  8
0
100
AcDbBlockBegin
  2
27
 70
64
 10
0
 20
0
 30
1
  3
27
  0
LINE
  5
45E
330
45C
100
AcDbEntity
  8
Plywoodparts
 62
7
100
AcDbLine
 10
0
 20
0
 30
0
 11
3.21241933181102
 21
0.011319172118135355
 31
0
  0
LINE
  5
45F
330
45C
100
AcDbEntity
  8
Plywoodparts
 62
7
100
AcDbLine
 10
3.21241933181102
 20
0.011319172118135355
 30
0
 11
3.2079395175473309
 21
0.83766302263779846
 31
0
  0
ARC
  5
460
330
45C
100
AcDbEntity
  8
Plywoodparts
 62
7
100
AcDbCircle
 10
-509.58694378156287
 20
-3.5380910791940354
 30
0
 40
512.813552435685
100
AcDbArc
 50
0.48890144087362775
 51
3.2758890350480381
  0
LINE
  5
461
330
45C
100
AcDbEntity
  8
Plywoodparts
 62
7
100
AcDbLine
 10
2.3886467276707584
 20
25.766077300565371
 30
0
 11
-0.7736907190984198
 21
25.766077300566934
 31
0
  0
LINE
  5
462
330
45C
100
AcDbEntity
  8
Plywoodparts
 62
7
100
AcDbLine
 10
-0.7736907190984198
 20
25.766077300566934
 30
0
 11
-0.77369071909842
 21
27.301510371433068
 31
0
  0
LINE
  5
463
330
45C
100
AcDbEntity
  8
Plywoodparts
 62
7
100
AcDbLine
 10
-0.77369071909842
 20
27.301510371433068
 30
0
 11
-3.9036119789409391
 21
27.301510371433068
 31
0
  0
LINE
  5
464
330
45C
100
AcDbEntity
  8
Plywoodparts
 62
7
100
AcDbLine
 10
-3.9036119789409391
 20
27.301510371433068
 30
0
 11
-3.9036119789409476
 21
-48.255743822649606
 31
0
  0
LINE
  5
465
330
45C
100
AcDbEntity
  8
Plywoodparts
 62
7
100
AcDbLine
 10
-3.9036119789409476
 20
-48.255743822649606
 30
0
 11
-0.50604274883071265
 21
-48.255743822649606
 31
0
  0
ARC
  5
466
330
45C
100
AcDbEntity
  8
Plywoodparts
 62
7
100
AcDbCircle
 10
-248.68835180068186
 20
-5.816824371301565
 30
0
 40
251.78467072184253
100
AcDbArc
 50
350.29633474551059
 51
354.80744524238031
  0
LINE
  5
467
330
45C
100
AcDbEntity
  8
Plywoodparts
 62
7
100
AcDbLine
 10
2.0630367730494843
 20
-28.60413528883106
 30
0
 11
-0.83510350095274621
 21
-28.356204785606337
 31
0
  0
ARC
  5
468
330
45C
100
AcDbEntity
  8
Plywoodparts
 62
7
100
AcDbCircle
 10
-0.82839182444779
 20
-28.277751195512963
 30
0
 40
0.078740157480307479
100
AcDbArc
 50
85.110443187325814
 51
265.11027229604531
  0
LINE
  5
469
330
45C
100
AcDbEntity
  8
Plywoodparts
 62
7
100
AcDbLine
 10
-0.82168038193975523
 20
-28.199297585401553
 30
0
 11
2.077242593740154
 21
-28.447295051755873
 31
0
  0
LINE
  5
46A
330
45C
100
AcDbEntity
  8
Plywoodparts
 62
7
100
AcDbLine
 10
2.077242593740154
 20
-28.447295051755873
 30
0
 11
2.2565402871343365
 21
-26.368127207427563
 31
0
  0
LINE
  5
46B
330
45C
100
AcDbEntity
  8
Plywoodparts
 62
7
100
AcDbLine
 10
2.2565402871343365
 20
-26.368127207427563
 30
0
 11
-0.65075482621260361
 21
-26.119426655936991
 31
0
  0
ARC
  5
46C
330
45C
100
AcDbEntity
  8
Plywoodparts
 62
7
100
AcDbCircle
 10
-0.64404325407020313
 20
-26.040973056913742
 30
0
 40
0.07874015748033189
100
AcDbArc
 50
85.110880983663591
 51
265.11034851361825
  0
LINE
  5
46D
330
45C
100
AcDbEntity
  8
Plywoodparts
 62
7
100
AcDbLine
 10
-0.63733241102531057
 20
-25.962519395521269
 30
0
 11
2.2693993011181077
 21
-26.21117175087403
 31
0
  0
LINE
  5
46E
330
45C
100
AcDbEntity
  8
Plywoodparts
 62
7
100
AcDbLine
 10
2.2693993011181077
 20
-26.21117175087403
 30
0
 11
2.4046072428633156
 21
-24.485201098455548
 31
0
  0
ARC
  5
46F
330
45C
100
AcDbEntity
  8
Plywoodparts
 62
7
100
AcDbCircle
 10
-299.64677915010935
 20
-2.34143985155625
 30
0
 40
302.86199197667008
100
AcDbArc
 50
355.80707637907176
 51
359.99076355806352
  0
LINE
  5
470
330
45C
100
AcDbEntity
  8
Plywoodparts
 62
7
100
AcDbLine
 10
3.215208891250946
 20
-2.3902631194358146
 30
0
 11
0.0089553036456708
 21
-2.4015604467165304
 31
0
  0
ARC
  5
471
330
45C
100
AcDbEntity
  8
Plywoodparts
 62
7
100
AcDbCircle
 10
0.008678226601652881
 20
-2.3228207767361937
 30
0
 40
0.0787401574803248
100
AcDbArc
 50
90.202147746110526
 51
270.20161730040667
  0
LINE
  5
472
330
45C
100
AcDbEntity
  8
Plywoodparts
 62
7
100
AcDbLine
 10
0.0084004205838895951
 20
-2.2440811093244122
 30
0
 11
3.2155032355551332
 21
-2.2327807885669126
 31
0
  0
LINE
  5
473
330
45C
100
AcDbEntity
  8
Plywoodparts
 62
7
100
AcDbLine
 10
3.2155032355551332
 20
-2.2327807885669126
 30
0
 11
3.2130737785187478
 21
-0.14615981320275731
 31
0
  0
LINE
  5
474
330
45C
100
AcDbEntity
  8
Plywoodparts
 62
7
100
AcDbLine
 10
3.2130737785187478
 20
-0.14615981320275731
 30
0
 11
0.0005548888700843787
 21
-0.15747933737006292
 31
0
  0
ARC
  5
475
330
45C
100
AcDbEntity
  8
Plywoodparts
 62
7
100
AcDbCircle
 10
0.00027757713871068773
 20
-0.0787396682173096
 30
0
 40
0.078740157480332668
100
AcDbArc
 50
90.201981199771666
 51
270.2017880732248
  0
ENDBLK
  5
476
330
45C
100
AcDbEntity
  8
0
100
AcDbBlockEnd
  0
BLOCK
  5
478
330
477
100
AcDbEntity
  8
0
100
AcDbBlockBegin
  2
1
 70
64
 10
0
 20
0
 30
1
  3
1
  0
LINE
  5
479
330
477
100
AcDbEntity
  8
Plywoodparts
 62
7
100
AcDbLine
 10
0
 20
0
 30
0
 11
1.18110236220474
 21
0
 31
0
  0
LINE
  5
47A
330
477
100
AcDbEntity
  8
Plywoodparts
 62
7
100
AcDbLine
 10
1.18110236220474
 20
0
 30
0
 11
1.18110236220474
 21
0.78740157480315176
 31
0
  0
LINE
  5
47B
330
477
100
AcDbEntity
  8
Plywoodparts
 62
7
100
AcDbLine
 10
1.18110236220474
 20
0.78740157480315176
 30
0
 11
2.5590551181102796
 21
0.78740157480315176
 31
0
  0
LINE
  5
47C
330
477
100
AcDbEntity
  8
Plywoodparts
 62
7
100
AcDbLine
 10
2.5590551181102796
 20
0.78740157480315176
 30
0
 11
2.5590551181102796
 21
1.269151880472446
 31
0
  0
LINE
  5
47D
330
477
100
AcDbEntity
  8
Plywoodparts
 62
7
100
AcDbLine
 10
2.5590551181102796
 20
1.269151880472446
 30
0
 11
4.1338582677165618
 21
1.269151880472446
 31
0
  0
LINE
  5
47E
330
477
100
AcDbEntity
  8
Plywoodparts
 62
7
100
AcDbLine
 10
4.1338582677165618
 20
1.269151880472446
 30
0
 11
4.1338582677165618
 21
0.78740157480315176
 31
0
  0
LINE
  5
47F
330
477
100
AcDbEntity
  8
Plywoodparts
 62
7
100
AcDbLine
 10
4.1338582677165618
 20
0.78740157480315176
 30
0
 11
5.5118110236220446
 21
0.78740157480315176
 31
0
  0
LINE
  5
480
330
477
100
AcDbEntity
  8
Plywoodparts
 62
7
100
AcDbLine
 10
5.5118110236220446
 20
0.78740157480315176
 30
0
 11
5.5118110236220446
 21
0
 31
0
  0
LINE
  5
481
330
477
100
AcDbEntity
  8
Plywoodparts
 62
7
100
AcDbLine
 10
5.5118110236220446
 20
0
 30
0
 11
6.6929133858267846
 21
0
 31
0
  0
LINE
  5
482
330
477
100
AcDbEntity
  8
Plywoodparts
 62
7
100
AcDbLine
 10
6.6929133858267846
 20
0
 30
0
 11
6.6929133858267846
 21
1.278461338263778
 31
0
  0
LINE
  5
483
330
477
100
AcDbEntity
  8
Plywoodparts
 62
7
100
AcDbLine
 10
6.6929133858267846
 20
1.278461338263778
 30
0
 11
8.2677165354330668
 21
1.278461338263778
 31
0
  0
LINE
  5
484
330
477
100
AcDbEntity
  8
Plywoodparts
 62
7
100
AcDbLine
 10
8.2677165354330668
 20
1.278461338263778
 30
0
 11
8.2677165354330668
 21
0.78740183772047345
 31
0
  0
LINE
  5
485
330
477
100
AcDbEntity
  8
Plywoodparts
 62
7
100
AcDbLine
 10
8.2677165354330668
 20
0.78740183772047345
 30
0
 11
10.646046786609986
 21
0.78740135560098423
 31
0
  0
LINE
  5
486
330
477
100
AcDbEntity
  8
Plywoodparts
 62
7
100
AcDbLine
 10
10.646046786609986
 20
0.78740135560098423
 30
0
 11
14.302819245996091
 21
3.77873213309055
 31
0
  0
LINE
  5
487
330
477
100
AcDbEntity
  8
Plywoodparts
 62
7
100
AcDbLine
 10
14.302819245996091
 20
3.77873213309055
 30
0
 11
14.801456594996068
 21
3.1693373233110265
 31
0
  0
LINE
  5
488
330
477
100
AcDbEntity
  8
Plywoodparts
 62
7
100
AcDbLine
 10
14.801456594996068
 20
3.1693373233110265
 30
0
 11
15.715548809665393
 21
3.9172933468110287
 31
0
  0
LINE
  5
489
330
477
100
AcDbEntity
  8
Plywoodparts
 62
7
100
AcDbLine
 10
15.715548809665393
 20
3.9172933468110287
 30
0
 11
15.216911460665244
 21
4.5266881565898842
 31
0
  0
LINE
  5
48A
330
477
100
AcDbEntity
  8
Plywoodparts
 62
7
100
AcDbLine
 10
15.216911460665244
 20
4.5266881565898842
 30
0
 11
17.186692717652591
 21
6.1386784618146564
 31
0
  0
ARC
  5
48B
330
477
100
AcDbEntity
  8
Plywoodparts
 62
7
100
AcDbCircle
 10
-677.59353452966536
 20
-75.319320059316524
 30
0
 40
699.53911234248039
100
AcDbArc
 50
6.6869911915080262
 51
7.1208383918003868
  0
LINE
  5
48C
330
477
100
AcDbEntity
  8
Plywoodparts
 62
7
100
AcDbLine
 10
16.549975681251965
 20
11.397211980251974
 30
0
 11
16.061489223594492
 21
11.478123985381892
 31
0
  0
LINE
  5
48D
330
477
100
AcDbEntity
  8
Plywoodparts
 62
7
100
AcDbLine
 10
16.061489223594492
 20
11.478123985381892
 30
0
 11
15.967440430661441
 21
12.225027394287409
 31
0
  0
LINE
  5
48E
330
477
100
AcDbEntity
  8
Plywoodparts
 62
7
100
AcDbLine
 10
15.967440430661441
 20
12.225027394287409
 30
0
 11
12.303744648488191
 21
12.831875275700789
 31
0
  0
LINE
  5
48F
330
477
100
AcDbEntity
  8
Plywoodparts
 62
7
100
AcDbLine
 10
12.303744648488191
 20
12.831875275700789
 30
0
 11
12.087880074338614
 21
11.242463270759842
 31
0
  0
LINE
  5
490
330
477
100
AcDbEntity
  8
Plywoodparts
 62
7
100
AcDbLine
 10
12.087880074338614
 20
11.242463270759842
 30
0
 11
11.616199916326821
 21
11.320591511098435
 31
0
  0
LINE
  5
491
330
477
100
AcDbEntity
  8
Plywoodparts
 62
7
100
AcDbLine
 10
11.616199916326821
 20
11.320591511098435
 30
0
 11
11.832064490476398
 21
12.910003516039375
 31
0
  0
LINE
  5
492
330
477
100
AcDbEntity
  8
Plywoodparts
 62
7
100
AcDbLine
 10
11.832064490476398
 20
12.910003516039375
 30
0
 11
9.7268706443307451
 21
13.258703981755915
 31
0
  0
LINE
  5
493
330
477
100
AcDbEntity
  8
Plywoodparts
 62
7
100
AcDbLine
 10
9.7268706443307451
 20
13.258703981755915
 30
0
 11
9.370676721469863
 21
13.322000823302211
 31
0
  0
ARC
  5
494
330
477
100
AcDbEntity
  8
Plywoodparts
 62
7
100
AcDbCircle
 10
3.3456485135574212
 20
-23.052886535683029
 30
0
 40
36.870494915108026
100
AcDbArc
 50
80.595086920237691
 51
89.998744110533408
  0
ARC
  5
495
330
477
100
AcDbEntity
  8
Plywoodparts
 62
7
100
AcDbCircle
 10
3.3471134081784726
 20
-23.050381344010034
 30
0
 40
36.867989720426536
100
AcDbArc
 50
90.001020587596912
 51
94.7031691018317
  0
ARC
  5
496
330
477
100
AcDbEntity
  8
Plywoodparts
 62
7
100
AcDbCircle
 10
3.3472348612837095
 20
-23.05224889145342
 30
0
 40
36.869860937958855
100
AcDbArc
 50
94.703119245074916
 51
99.4050289929901
  0
LINE
  5
497
330
477
100
AcDbEntity
  8
Plywoodparts
 62
7
100
AcDbLine
 10
-2.6777633356417141
 20
13.322000823303156
 30
0
 11
-3.0339572585039036
 21
13.258703981755915
 31
0
  0
LINE
  5
498
330
477
100
AcDbEntity
  8
Plywoodparts
 62
7
100
AcDbLine
 10
-3.0339572585039036
 20
13.258703981755915
 30
0
 11
-5.1391511046496134
 21
12.910003516039375
 31
0
  0
LINE
  5
499
330
477
100
AcDbEntity
  8
Plywoodparts
 62
7
100
AcDbLine
 10
-5.1391511046496134
 20
12.910003516039375
 30
0
 11
-4.9232865304999791
 21
11.320591511098435
 31
0
  0
LINE
  5
49A
330
477
100
AcDbEntity
  8
Plywoodparts
 62
7
100
AcDbLine
 10
-4.9232865304999791
 20
11.320591511098435
 30
0
 11
-5.3949666885117722
 21
11.242463270759842
 31
0
  0
LINE
  5
49B
330
477
100
AcDbEntity
  8
Plywoodparts
 62
7
100
AcDbLine
 10
-5.3949666885117722
 20
11.242463270759842
 30
0
 11
-5.6108312626614065
 21
12.831875275700789
 31
0
  0
LINE
  5
49C
330
477
100
AcDbEntity
  8
Plywoodparts
 62
7
100
AcDbLine
 10
-5.6108312626614065
 20
12.831875275700789
 30
0
 11
-9.2745270448345991
 21
12.225027394287409
 31
0
  0
LINE
  5
49D
330
477
100
AcDbEntity
  8
Plywoodparts
 62
7
100
AcDbLine
 10
-9.2745270448345991
 20
12.225027394287409
 30
0
 11
-9.3685758377677075
 21
11.478123985381892
 31
0
  0
LINE
  5
49E
330
477
100
AcDbEntity
  8
Plywoodparts
 62
7
100
AcDbLine
 10
-9.3685758377677075
 20
11.478123985381892
 30
0
 11
-9.8570622980228677
 21
11.397211995937767
 31
0
  0
ARC
  5
49F
330
477
100
AcDbEntity
  8
Plywoodparts
 62
7
100
AcDbCircle
 10
684.274584054122
 20
-75.317882950292514
 30
0
 40
699.52716184511019
100
AcDbArc
 50
172.87915794999361
 51
173.31301256327748
  0
LINE
  5
4A0
330
477
100
AcDbEntity
  8
Plywoodparts
 62
7
100
AcDbLine
 10
-10.493779331825806
 20
6.1386784618146564
 30
0
 11
-8.5239980748385733
 21
4.5266881565905521
 31
0
  0
LINE
  5
4A1
330
477
100
AcDbEntity
  8
Plywoodparts
 62
7
100
AcDbLine
 10
-8.5239980748385733
 20
4.5266881565905521
 30
0
 11
-9.0226354238385511
 21
3.9172933468110287
 31
0
  0
LINE
  5
4A2
330
477
100
AcDbEntity
  8
Plywoodparts
 62
7
100
AcDbLine
 10
-9.0226354238385511
 20
3.9172933468110287
 30
0
 11
-8.1085432091692837
 21
3.1693373233110265
 31
0
  0
LINE
  5
4A3
330
477
100
AcDbEntity
  8
Plywoodparts
 62
7
100
AcDbLine
 10
-8.1085432091692837
 20
3.1693373233110265
 30
0
 11
-7.609905860169647
 21
3.7787321330915375
 31
0
  0
LINE
  5
4A4
330
477
100
AcDbEntity
  8
Plywoodparts
 62
7
100
AcDbLine
 10
-7.609905860169647
 20
3.7787321330915375
 30
0
 11
-3.9531334007834289
 21
0.78740135560236268
 31
0
  0
LINE
  5
4A5
330
477
100
AcDbEntity
  8
Plywoodparts
 62
7
100
AcDbLine
 10
-3.9531334007834289
 20
0.78740135560236268
 30
0
 11
-1.5748031496062822
 21
0.78740183772047345
 31
0
  0
LINE
  5
4A6
330
477
100
AcDbEntity
  8
Plywoodparts
 62
7
100
AcDbLine
 10
-1.5748031496062822
 20
0.78740183772047345
 30
0
 11
-1.5748031496062822
 21
1.278461338263778
 31
0
  0
LINE
  5
4A7
330
477
100
AcDbEntity
  8
Plywoodparts
 62
7
100
AcDbLine
 10
-1.5748031496062822
 20
1.278461338263778
 30
0
 11
0
 21
1.278461338263778
 31
0
  0
LINE
  5
4A8
330
477
100
AcDbEntity
  8
Plywoodparts
 62
7
100
AcDbLine
 10
0
 20
1.278461338263778
 30
0
 11
0
 21
0
 31
0
  0
CIRCLE
  5
4A9
330
477
100
AcDbEntity
  8
Plywoodparts
 62
7
100
AcDbCircle
 10
6.102362204724443
 20
0.59055118110236293
 30
0
 40
0.19685039370078858
  0
CIRCLE
  5
4AA
330
477
100
AcDbEntity
  8
Plywoodparts
 62
7
100
AcDbCircle
 10
14.884524690578758
 20
4.00036144239764
 30
0
 40
0.19685039370078622
  0
CIRCLE
  5
4AB
330
477
100
AcDbEntity
  8
Plywoodparts
 62
7
100
AcDbCircle
 10
0.59055118110239846
 20
0.59055118110236293
 30
0
 40
0.19685039370078858
  0
CIRCLE
  5
4AC
330
477
100
AcDbEntity
  8
Plywoodparts
 62
7
100
AcDbCircle
 10
-8.191611304751973
 20
4.00036144239764
 30
0
 40
0.19685039370078622
  0
CIRCLE
  5
4AD
330
477
100
AcDbEntity
  8
Plywoodparts
 62
7
100
AcDbCircle
 10
4.3307086614173613
 20
7.0262697878897669
 30
0
 40
4.2322834645666534
  0
ARC
  5
4AE
330
477
100
AcDbEntity
  8
Plywoodparts
 62
7
100
AcDbCircle
 10
-2.5492048989734144
 20
7.5703438256845388
 30
0
 40
0.82672418997487407
100
AcDbArc
 50
60.349710869380509
 51
182.78509928699185
  0
ARC
  5
4AF
330
477
100
AcDbEntity
  8
Plywoodparts
 62
7
100
AcDbCircle
 10
-2.5738388451209744
 20
7.5565684367294494
 30
0
 40
0.80154844026646843
100
AcDbArc
 50
181.88710257460485
 51
317.71828127552953
  0
ARC
  5
4B0
330
477
100
AcDbEntity
  8
Plywoodparts
 62
7
100
AcDbCircle
 10
-2.5755956051140174
 20
7.5884886287115947
 30
0
 40
0.82462854414066145
100
AcDbArc
 50
316.15935076278623
 51
58.131926312304408
  0
ENDBLK
  5
4B1
330
477
100
AcDbEntity
  8
0
100
AcDbBlockEnd
  0
BLOCK
  5
4B3
330
4B2
100
AcDbEntity
  8
0
100
AcDbBlockBegin
  2
10
 70
64
 10
0
 20
0
 30
1
  3
10
  0
ARC
  5
4B4
330
4B2
100
AcDbEntity
  8
Plywoodparts
 62
7
100
AcDbCircle
 10
0.39370078740154213
 20
-4.8214440911309115E-17
 30
0
 40
0.39370078740157477
100
AcDbArc
 50
180
 51
270
  0
LINE
  5
4B5
330
4B2
100
AcDbEntity
  8
Plywoodparts
 62
7
100
AcDbLine
 10
0.39370078740154213
 20
-0.39370078740157588
 30
0
 11
13.779527559055111
 21
-0.39370078740157655
 31
0
  0
ARC
  5
4B6
330
4B2
100
AcDbEntity
  8
Plywoodparts
 62
7
100
AcDbCircle
 10
13.779527559055111
 20
-1.6875054318959583E-15
 30
0
 40
0.39370078740157477
100
AcDbArc
 50
270
 51
360
  0
LINE
  5
4B7
330
4B2
100
AcDbEntity
  8
Plywoodparts
 62
7
100
AcDbLine
 10
14.17322834645671
 20
-1.7357198728072745E-15
 30
0
 11
14.173228346456714
 21
18.906467228940947
 31
0
  0
ARC
  5
4B8
330
4B2
100
AcDbEntity
  8
Plywoodparts
 62
7
100
AcDbCircle
 10
13.777824374587514
 20
18.906582538865788
 30
0
 40
0.39540398868285043
100
AcDbArc
 50
359.98329108377237
 51
76.673090298702235
  0
LINE
  5
4B9
330
4B2
100
AcDbEntity
  8
Plywoodparts
 62
7
100
AcDbLine
 10
13.868967673947683
 20
19.291338582675426
 30
0
 11
0.30426067250789635
 21
19.291338582677163
 31
0
  0
ARC
  5
4BA
330
4B2
100
AcDbEntity
  8
Plywoodparts
 62
7
100
AcDbCircle
 10
0.39431948075776069
 20
18.907439885070392
 30
0
 40
0.39432068037014961
100
AcDbArc
 50
103.20228910965066
 51
180.14132950773927
  0
LINE
  5
4BB
330
4B2
100
AcDbEntity
  8
Plywoodparts
 62
7
100
AcDbLine
 10
-3.2377595006085463E-12
 20
18.906467228940947
 30
0
 11
0
 21
0
 31
0
  0
ENDBLK
  5
4BC
330
4B2
100
AcDbEntity
  8
0
100
AcDbBlockEnd
  0
BLOCK
  5
4BE
330
4BD
100
AcDbEntity
  8
0
100
AcDbBlockBegin
  2
16
 70
64
 10
0
 20
0
 30
1
  3
16
  0
LINE
  5
4BF
330
4BD
100
AcDbEntity
  8
Plywoodparts
 62
7
100
AcDbLine
 10
0
 20
0
 30
0
 11
-0.87987736151967511
 21
0.01587027483856213
 31
0
  0
LINE
  5
4C0
330
4BD
100
AcDbEntity
  8
Plywoodparts
 62
7
100
AcDbLine
 10
-0.87987736151967511
 20
0.01587027483856213
 30
0
 11
-0.058026953736188033
 21
-9.3778675080866378
 31
0
  0
ARC
  5
4C1
330
4BD
100
AcDbEntity
  8
Plywoodparts
 62
7
100
AcDbCircle
 10
8.4519740885224568
 20
-8.62422419924752
 30
0
 40
8.5433070866147247
100
AcDbArc
 50
185.06089517393977
 51
245.15472009430849
  0
LINE
  5
4C2
330
4BD
100
AcDbEntity
  8
Plywoodparts
 62
7
100
AcDbLine
 10
4.8623382783527811
 20
-16.376811556159339
 30
0
 11
4.810139186996091
 21
-17.359678379472484
 31
0
  0
LINE
  5
4C3
330
4BD
100
AcDbEntity
  8
Plywoodparts
 62
7
100
AcDbLine
 10
4.810139186996091
 20
-17.359678379472484
 30
0
 11
6.3827261042913648
 21
-17.443196925653581
 31
0
  0
LINE
  5
4C4
330
4BD
100
AcDbEntity
  8
Plywoodparts
 62
7
100
AcDbLine
 10
6.3827261042913648
 20
-17.443196925653581
 30
0
 11
6.4349251956535687
 21
-16.460330102342539
 31
0
  0
LINE
  5
4C5
330
4BD
100
AcDbEntity
  8
Plywoodparts
 62
7
100
AcDbLine
 10
6.4349251956535687
 20
-16.460330102342539
 30
0
 11
7.916660066602403
 21
-16.539023585598443
 31
0
  0
ARC
  5
4C6
330
4BD
100
AcDbEntity
  8
Plywoodparts
 62
7
100
AcDbCircle
 10
11.718410248501188
 20
-6.6524793586049213
 30
0
 40
10.592311419037243
100
AcDbArc
 50
224.28367473326489
 51
248.96636041531372
  0
ARC
  5
4C7
330
4BD
100
AcDbEntity
  8
Plywoodparts
 62
7
100
AcDbCircle
 10
10.94275755812796
 20
-7.521908720127044
 30
0
 40
9.4303292246954715
100
AcDbArc
 50
218.56655791421608
 51
223.79246255564402
  0
LINE
  5
4C8
330
4BD
100
AcDbEntity
  8
Plywoodparts
 62
7
100
AcDbLine
 10
3.5693294782177469
 20
-13.400996033353351
 30
0
 11
1.2283950873897924
 21
-10.462067966996074
 31
0
  0
ARC
  5
4C9
330
4BD
100
AcDbEntity
  8
Plywoodparts
 62
7
100
AcDbCircle
 10
2.7681438112791525
 20
-9.2356171456025322
 30
0
 40
1.9685039370080393
100
AcDbArc
 50
184.90398701771071
 51
218.53825433866876
  0
LINE
  5
4CA
330
4BD
100
AcDbEntity
  8
Plywoodparts
 62
7
100
AcDbLine
 10
0.8068458783921606
 20
-9.40389717552091
 30
0
 11
0
 21
0
 31
0
  0
CIRCLE
  5
4CB
330
4BD
100
AcDbEntity
  8
Plywoodparts
 62
7
100
AcDbCircle
 10
5.8368532470511978
 20
-16.586269339252
 30
0
 40
0.23622047244137442
  0
ENDBLK
  5
4CC
330
4BD
100
AcDbEntity
  8
0
100
AcDbBlockEnd
  0
BLOCK
  5
4CE
330
4CD
100
AcDbEntity
  8
0
100
AcDbBlockBegin
  2
25
 70
64
 10
0
 20
0
 30
1
  3
25
  0
ARC
  5
4CF
330
4CD
100
AcDbEntity
  8
Plywoodparts
 62
7
100
AcDbCircle
 10
28.120802542701625
 20
223.52376265836983
 30
0
 40
225.28571194951732
100
AcDbArc
 50
262.82947482385055
 51
266.69738736687373
  0
ARC
  5
4D0
330
4CD
100
AcDbEntity
  8
Plywoodparts
 62
7
100
AcDbCircle
 10
32.35289386859094
 20
285.062315392001
 30
0
 40
286.96667508574643
100
AcDbArc
 50
266.561647503591
 51
268.13102452508565
  0
LINE
  5
4D1
330
4CD
100
AcDbEntity
  8
Plywoodparts
 62
7
100
AcDbLine
 10
22.993765269888627
 20
-1.7516998193226878
 30
0
 11
22.993765155183837
 21
-0.92567291739902946
 31
0
  0
ARC
  5
4D2
330
4CD
100
AcDbEntity
  8
Plywoodparts
 62
7
100
AcDbCircle
 10
23.348055143746478
 20
-0.925672321408018
 30
0
 40
0.35428998856198074
100
AcDbArc
 50
359.99990361632933
 51
180.00009638367067
  0
LINE
  5
4D3
330
4CD
100
AcDbEntity
  8
Plywoodparts
 62
7
100
AcDbLine
 10
23.702345132308722
 20
-0.92567291739902946
 30
0
 11
23.702345132309858
 21
-1.7748352681352513
 31
0
  0
ARC
  5
4D4
330
4CD
100
AcDbEntity
  8
Plywoodparts
 62
7
100
AcDbCircle
 10
35.139670843594544
 20
360.44906577055178
 30
0
 40
362.40442450818779
100
AcDbArc
 50
268.19146986393656
 51
270.172692511385
  0
ARC
  5
4D5
330
4CD
100
AcDbEntity
  8
Plywoodparts
 62
7
100
AcDbCircle
 10
35.489372712325633
 20
456.05258343138041
 30
0
 40
458.00689805642514
100
AcDbArc
 50
270.09289819237148
 51
271.66324883708825
  0
LINE
  5
4D6
330
4CD
100
AcDbEntity
  8
Plywoodparts
 62
7
100
AcDbLine
 10
48.783064857991349
 20
-1.7613486593813406
 30
0
 11
48.783064737254733
 21
-0.52013452384391545
 31
0
  0
ARC
  5
4D7
330
4CD
100
AcDbEntity
  8
Plywoodparts
 62
7
100
AcDbCircle
 10
49.137395445916127
 20
-0.52013452384391545
 30
0
 40
0.3543307086614173
100
AcDbArc
 50
0
 51
180
  0
LINE
  5
4D8
330
4CD
100
AcDbEntity
  8
Plywoodparts
 62
7
100
AcDbLine
 10
49.491726154577577
 20
-0.52013452384391545
 30
0
 11
49.491726154577577
 21
-1.7408312081391921
 31
0
  0
ARC
  5
4D9
330
4CD
100
AcDbEntity
  8
Plywoodparts
 62
7
100
AcDbCircle
 10
33.874709950608363
 20
525.01740703595169
 30
0
 40
526.98968941824023
100
AcDbArc
 50
271.698173899152
 51
273.77838197463819
  0
LINE
  5
4DA
330
4CD
100
AcDbEntity
  8
Plywoodparts
 62
7
100
AcDbLine
 10
68.60197058100988
 20
-0.82681906360491864
 30
0
 11
69.122944078412218
 21
1.6241685384119879
 31
0
  0
LINE
  5
4DB
330
4CD
100
AcDbEntity
  8
Plywoodparts
 62
7
100
AcDbLine
 10
69.122944078412218
 20
1.6241685384119879
 30
0
 11
69.893139039616926
 21
1.4604585456363974
 31
0
  0
LINE
  5
4DC
330
4CD
100
AcDbEntity
  8
Plywoodparts
 62
7
100
AcDbLine
 10
69.893139039616926
 20
1.4604585456363974
 30
0
 11
70.138704028774384
 21
2.6157509874001788
 31
0
  0
LINE
  5
4DD
330
4CD
100
AcDbEntity
  8
Plywoodparts
 62
7
100
AcDbLine
 10
70.138704028774384
 20
2.6157509874001788
 30
0
 11
69.368509067565753
 21
2.7794609801757684
 31
0
  0
LINE
  5
4DE
330
4CD
100
AcDbEntity
  8
Plywoodparts
 62
7
100
AcDbLine
 10
69.368509067565753
 20
2.7794609801757684
 30
0
 11
70.002824735254762
 21
5.7636815691718315
 31
0
  0
LINE
  5
4DF
330
4CD
100
AcDbEntity
  8
Plywoodparts
 62
7
100
AcDbLine
 10
70.002824735254762
 20
5.7636815691718315
 30
0
 11
-4.0095728722452009
 21
6.9447839313765627
 31
0
  0
LINE
  5
4E0
330
4CD
100
AcDbEntity
  8
Plywoodparts
 62
7
100
AcDbLine
 10
-4.0095728722452009
 20
6.9447839313765627
 30
0
 11
-1.878999187764975
 21
3.2545220605812881
 31
0
  0
LINE
  5
4E1
330
4CD
100
AcDbEntity
  8
Plywoodparts
 62
7
100
AcDbLine
 10
-1.878999187764975
 20
3.2545220605812881
 30
0
 11
-2.56090895451689
 21
2.8608212731836513
 31
0
  0
LINE
  5
4E2
330
4CD
100
AcDbEntity
  8
Plywoodparts
 62
7
100
AcDbLine
 10
-2.56090895451689
 20
2.8608212731836513
 30
0
 11
-1.9703577734145479
 21
1.8379566230419187
 31
0
  0
LINE
  5
4E3
330
4CD
100
AcDbEntity
  8
Plywoodparts
 62
7
100
AcDbLine
 10
-1.9703577734145479
 20
1.8379566230419187
 30
0
 11
-1.2884480066547321
 21
2.2316574104434928
 31
0
  0
LINE
  5
4E4
330
4CD
100
AcDbEntity
  8
Plywoodparts
 62
7
100
AcDbLine
 10
-1.2884480066547321
 20
2.2316574104434928
 30
0
 11
0
 21
0
 31
0
  0
CIRCLE
  5
4E5
330
4CD
100
AcDbEntity
  8
Plywoodparts
 62
7
100
AcDbCircle
 10
43.959003509490969
 20
2.2417841267584482
 30
0
 40
2.1653543307086616
  0
CIRCLE
  5
4E6
330
4CD
100
AcDbEntity
  8
Plywoodparts
 62
7
100
AcDbCircle
 10
-1.754201038898827
 20
2.6446645386639656
 30
0
 40
0.19685039369530905
  0
CIRCLE
  5
4E7
330
4CD
100
AcDbEntity
  8
Plywoodparts
 62
7
100
AcDbCircle
 10
69.4382753132902
 20
2.1608872611009637
 30
0
 40
0.19685039369139726
  0
ENDBLK
  5
4E8
330
4CD
100
AcDbEntity
  8
0
100
AcDbBlockEnd
  0
BLOCK
  5
4EA
330
4E9
100
AcDbEntity
  8
0
100
AcDbBlockBegin
  2
46
 70
64
 10
0
 20
0
 30
1
  3
46
  0
LINE
  5
4EB
330
4E9
100
AcDbEntity
  8
Plywoodparts
 62
7
100
AcDbLine
 10
0
 20
0
 30
0
 11
-0.083633966795475231
 21
3.254909344368798
 31
0
  0
LINE
  5
4EC
330
4E9
100
AcDbEntity
  8
Plywoodparts
 62
7
100
AcDbLine
 10
-0.083633966795475231
 20
3.254909344368798
 30
0
 11
-0.2854186263542523
 21
11.559605789238276
 31
0
  0
LINE
  5
4ED
330
4E9
100
AcDbEntity
  8
Plywoodparts
 62
7
100
AcDbLine
 10
-0.2854186263542523
 20
11.559605789238276
 30
0
 11
-0.47780580137354545
 21
19.864526023872941
 31
0
  0
ARC
  5
4EE
330
4E9
100
AcDbEntity
  8
Plywoodparts
 62
7
100
AcDbCircle
 10
9821.9781188899688
 20
244.76452051645086
 30
0
 40
9825.0303002090932
100
AcDbArc
 50
181.21475625557011
 51
181.31164441003443
  0
ARC
  5
4EF
330
4E9
100
AcDbEntity
  8
Plywoodparts
 62
7
100
AcDbCircle
 10
6976.6967534794567
 20
182.64894376604966
 30
0
 40
6979.0717757034254
100
AcDbArc
 50
181.06373057453237
 51
181.2001273569725
  0
LINE
  5
4F0
330
4E9
100
AcDbEntity
  8
Plywoodparts
 62
7
100
AcDbLine
 10
-1.172278181706889
 20
53.085725974884326
 30
0
 11
-1.209306185861851
 21
53.080109051149634
 31
0
  0
LINE
  5
4F1
330
4E9
100
AcDbEntity
  8
Plywoodparts
 62
7
100
AcDbLine
 10
-1.209306185861851
 20
53.080109051149634
 30
0
 11
-1.1740356851846867
 21
53.173279886063028
 31
0
  0
LINE
  5
4F2
330
4E9
100
AcDbEntity
  8
Plywoodparts
 62
7
100
AcDbLine
 10
-1.1740356851846867
 20
53.173279886063028
 30
0
 11
-2.0095066501561041
 21
53.085377093763384
 31
0
  0
LINE
  5
4F3
330
4E9
100
AcDbEntity
  8
Plywoodparts
 62
7
100
AcDbLine
 10
-2.0095066501561041
 20
53.085377093763384
 30
0
 11
-2.8439262360017734
 21
52.987998727706383
 31
0
  0
ARC
  5
4F4
330
4E9
100
AcDbEntity
  8
Plywoodparts
 62
7
100
AcDbCircle
 10
6.0854766040800925
 20
-19.913392417184923
 30
0
 40
73.446218867555913
100
AcDbArc
 50
96.983149534266516
 51
98.2938619568413
  0
ARC
  5
4F5
330
4E9
100
AcDbEntity
  8
Plywoodparts
 62
7
100
AcDbCircle
 10
5.990854149293817
 20
-19.242229076049227
 30
0
 40
72.768425819479532
100
AcDbArc
 50
98.296367860602928
 51
99.619288810043187
  0
LINE
  5
4F6
330
4E9
100
AcDbEntity
  8
Plywoodparts
 62
7
100
AcDbLine
 10
-6.1687989983381106
 20
52.503060884855984
 30
0
 11
-6.9962366665948812
 21
52.357853334600463
 31
0
  0
LINE
  5
4F7
330
4E9
100
AcDbEntity
  8
Plywoodparts
 62
7
100
AcDbLine
 10
-6.9962366665948812
 20
52.357853334600463
 30
0
 11
-7.8219288657667319
 21
52.203028675417784
 31
0
  0
LINE
  5
4F8
330
4E9
100
AcDbEntity
  8
Plywoodparts
 62
7
100
AcDbLine
 10
-7.8219288657667319
 20
52.203028675417784
 30
0
 11
-7.82771472471618
 21
52.074003120964619
 31
0
  0
ARC
  5
4F9
330
4E9
100
AcDbEntity
  8
Plywoodparts
 62
7
100
AcDbCircle
 10
3449.2712406280989
 20
-105.27750911576409
 30
0
 40
3460.6780673019452
100
AcDbArc
 50
177.39395381467409
 51
177.94102133149823
  0
ARC
  5
4FA
330
4E9
100
AcDbEntity
  8
Plywoodparts
 62
7
100
AcDbCircle
 10
833.35771338240977
 20
-11.314976570407413
 30
0
 40
843.07754180227164
100
AcDbArc
 50
177.9353631937613
 51
179.45844915396694
  0
LINE
  5
4FB
330
4E9
100
AcDbEntity
  8
Plywoodparts
 62
7
100
AcDbLine
 10
-9.6821695308015734
 20
-3.3464566929133088
 30
0
 11
-9.0683658488461028
 21
-3.3044242615826551
 31
0
  0
ARC
  5
4FC
330
4E9
100
AcDbEntity
  8
Plywoodparts
 62
7
100
AcDbCircle
 10
-9.07912468760209
 20
-3.1473118910043372
 30
0
 40
0.15748031496063425
100
AcDbArc
 50
273.91742036130591
 51
348.36726945508292
  0
LINE
  5
4FD
330
4E9
100
AcDbEntity
  8
Plywoodparts
 62
7
100
AcDbLine
 10
-8.92487898321658
 20
-3.1790658242837839
 30
0
 11
-8.4128006571846861
 21
-0.69162965683460853
 31
0
  0
ARC
  5
4FE
330
4E9
100
AcDbEntity
  8
Plywoodparts
 62
7
100
AcDbCircle
 10
-8.2585549527990558
 20
-0.72338359011348685
 30
0
 40
0.15748031496062637
100
AcDbArc
 50
19.467571266170076
 51
168.36726945529435
  0
LINE
  5
4FF
330
4E9
100
AcDbEntity
  8
Plywoodparts
 62
7
100
AcDbLine
 10
-8.1100777447937418
 20
-0.67089960871879983
 30
0
 11
-7.26369726337366
 21
-3.0653103879723758
 31
0
  0
ARC
  5
500
330
4E9
100
AcDbEntity
  8
Plywoodparts
 62
7
100
AcDbCircle
 10
-7.1152200553696039
 20
-3.0128264065741077
 30
0
 40
0.15748031496063231
100
AcDbArc
 50
199.46757126755097
 51
348.36726945466347
  0
LINE
  5
501
330
4E9
100
AcDbEntity
  8
Plywoodparts
 62
7
100
AcDbLine
 10
-6.96097435098429
 20
-3.0445803398546913
 30
0
 11
-6.448896024956337
 21
-0.55714417240545921
 31
0
  0
ARC
  5
502
330
4E9
100
AcDbEntity
  8
Plywoodparts
 62
7
100
AcDbCircle
 10
-6.29465032057071
 20
-0.58889810568439427
 30
0
 40
0.15748031496062834
100
AcDbArc
 50
19.46757126616961
 51
168.36726945527389
  0
LINE
  5
503
330
4E9
100
AcDbEntity
  8
Plywoodparts
 62
7
100
AcDbLine
 10
-6.1461731125653927
 20
-0.53641412428970736
 30
0
 11
-5.2997926311453112
 21
-2.9308249035432832
 31
0
  0
ARC
  5
504
330
4E9
100
AcDbEntity
  8
Plywoodparts
 62
7
100
AcDbCircle
 10
-5.1513154231412583
 20
-2.8783409221449583
 30
0
 40
0.15748031496063306
100
AcDbArc
 50
199.46757126757089
 51
348.36726945466347
  0
LINE
  5
505
330
4E9
100
AcDbEntity
  8
Plywoodparts
 62
7
100
AcDbLine
 10
-4.9970697187559443
 20
-2.9100948554255419
 30
0
 11
-4.484991392724055
 21
-0.42265868797630984
 31
0
  0
ARC
  5
506
330
4E9
100
AcDbEntity
  8
Plywoodparts
 62
7
100
AcDbCircle
 10
-4.3307456883384248
 20
-0.45441262125524495
 30
0
 40
0.15748031496062637
100
AcDbArc
 50
19.46757126616961
 51
168.36726945527411
  0
LINE
  5
507
330
4E9
100
AcDbEntity
  8
Plywoodparts
 62
7
100
AcDbLine
 10
-4.1822684803331072
 20
-0.40192863986055805
 30
0
 11
-3.3358879989169696
 21
-2.7963394191141338
 31
0
  0
ARC
  5
508
330
4E9
100
AcDbEntity
  8
Plywoodparts
 62
7
100
AcDbCircle
 10
-3.1874107909098828
 20
-2.7438554377242785
 30
0
 40
0.15748031496063425
100
AcDbArc
 50
199.46757126429765
 51
348.36726945633018
  0
LINE
  5
509
330
4E9
100
AcDbEntity
  8
Plywoodparts
 62
7
100
AcDbLine
 10
-3.0331650865236628
 20
-2.7756093710003715
 30
0
 11
-2.5210867604957095
 21
-0.28817320355113951
 31
0
  0
ARC
  5
50A
330
4E9
100
AcDbEntity
  8
Plywoodparts
 62
7
100
AcDbCircle
 10
-2.3668410561100828
 20
-0.31992713683007468
 30
0
 40
0.15748031496062953
100
AcDbArc
 50
19.467571266169628
 51
168.36726945527383
  0
LINE
  5
50B
330
4E9
100
AcDbEntity
  8
Plywoodparts
 62
7
100
AcDbLine
 10
-2.2183638481047652
 20
-0.26744315543538771
 30
0
 11
-1.3719833666846877
 21
-2.6618539346849848
 31
0
  0
ARC
  5
50C
330
4E9
100
AcDbEntity
  8
Plywoodparts
 62
7
100
AcDbCircle
 10
-1.2235061586801197
 20
-2.6093699532881378
 30
0
 40
0.15748031496063306
100
AcDbArc
 50
199.46757126700146
 51
348.36726945373482
  0
LINE
  5
50D
330
4E9
100
AcDbEntity
  8
Plywoodparts
 62
7
100
AcDbLine
 10
-1.0692604542953172
 20
-2.6411238865712221
 30
0
 11
-0.557182128263424
 21
-0.1536877191219902
 31
0
  0
ARC
  5
50E
330
4E9
100
AcDbEntity
  8
Plywoodparts
 62
7
100
AcDbCircle
 10
-0.40293642387787537
 20
-0.18544165240126639
 30
0
 40
0.15748031496063464
100
AcDbArc
 50
93.917420362037518
 51
168.36726945514658
  0
LINE
  5
50F
330
4E9
100
AcDbEntity
  8
Plywoodparts
 62
7
100
AcDbLine
 10
-0.41369526263586565
 20
-0.028329281823118967
 30
0
 11
0
 21
0
 31
0
  0
CIRCLE
  5
510
330
4E9
100
AcDbEntity
  8
Plywoodparts
 62
7
100
AcDbCircle
 10
-2.0826113233421677
 20
1.830499657838629
 30
0
 40
0.098425196850390556
  0
CIRCLE
  5
511
330
4E9
100
AcDbEntity
  8
Plywoodparts
 62
7
100
AcDbCircle
 10
-3.9497717717043717
 20
48.888416881720559
 30
0
 40
0.098425196850048816
  0
LINE
  5
512
330
4E9
100
AcDbEntity
  8
Plywoodparts
 62
7
100
AcDbLine
 10
-6.4444360920626389
 20
22.607684292358329
 30
0
 11
-5.26997597071225
 21
22.482300058740236
 31
0
  0
ARC
  5
513
330
4E9
100
AcDbEntity
  8
Plywoodparts
 62
7
100
AcDbCircle
 10
-5.2616176441170071
 20
22.560595338143685
 30
0
 40
0.078740157480317721
100
AcDbArc
 50
263.90652989592314
 51
83.905947915332789
  0
LINE
  5
514
330
4E9
100
AcDbEntity
  8
Plywoodparts
 62
7
100
AcDbLine
 10
-5.2532585222396451
 20
22.6388905326437
 30
0
 11
-6.4277186435901976
 21
22.764274766259859
 31
0
  0
ARC
  5
515
330
4E9
100
AcDbEntity
  8
Plywoodparts
 62
7
100
AcDbCircle
 10
-6.4360772599217677
 20
22.685979517789349
 30
0
 40
0.07874015748031811
100
AcDbArc
 50
83.906317869301631
 51
263.90615994192331
  0
ENDBLK
  5
516
330
4E9
100
AcDbEntity
  8
0
100
AcDbBlockEnd
  0
BLOCK
  5
518
330
517
100
AcDbEntity
  8
0
100
AcDbBlockBegin
  2
50
 70
64
 10
0
 20
0
 30
1
  3
50
  0
ARC
  5
519
330
517
100
AcDbEntity
  8
Plywoodparts
 62
7
100
AcDbCircle
 10
496.18234031928807
 20
-58.1632613369617
 30
0
 40
499.57970316464565
100
AcDbArc
 50
173.31421159825615
 51
176.56424276907663
  0
ARC
  5
51A
330
517
100
AcDbEntity
  8
Plywoodparts
 62
7
100
AcDbCircle
 10
445.57881404622907
 20
-55.144107202090055
 30
0
 40
448.88619504925191
100
AcDbArc
 50
176.56182927673362
 51
179.71463998950702
  0
ARC
  5
51B
330
517
100
AcDbEntity
  8
Plywoodparts
 62
7
100
AcDbCircle
 10
289.98562664270668
 20
-54.321367828472383
 30
0
 40
293.29084367664683
100
AcDbArc
 50
179.72397890730045
 51
184.38937746867271
  0
ARC
  5
51C
330
517
100
AcDbEntity
  8
Plywoodparts
 62
7
100
AcDbCircle
 10
251.99865470986924
 20
-56.801387701578342
 30
0
 40
255.22585277229055
100
AcDbArc
 50
184.486931139904
 51
188.05821513597419
  0
LINE
  5
51D
330
517
100
AcDbEntity
  8
Plywoodparts
 62
7
100
AcDbLine
 10
-0.70713662580460557
 20
-92.5787401574803
 30
0
 11
-0.28921780070004111
 21
-92.5787401574803
 31
0
  0
ARC
  5
51E
330
517
100
AcDbEntity
  8
Plywoodparts
 62
7
100
AcDbCircle
 10
-0.28921780070004105
 20
-92.736220472440891
 30
0
 40
0.15748031496063072
100
AcDbArc
 50
15.550150905632178
 51
90.000000000000028
  0
LINE
  5
51F
330
517
100
AcDbEntity
  8
Plywoodparts
 62
7
100
AcDbLine
 10
-0.13750186829582564
 20
-92.694002875934189
 30
0
 11
0.5433182354023206
 21
-95.140642793358211
 31
0
  0
ARC
  5
520
330
517
100
AcDbEntity
  8
Plywoodparts
 62
7
100
AcDbCircle
 10
0.69503416780507232
 20
-95.098425196846
 30
0
 40
0.15748031496063544
100
AcDbArc
 50
195.5501509077076
 51
344.44984909259904
  0
LINE
  5
521
330
517
100
AcDbEntity
  8
Plywoodparts
 62
7
100
AcDbLine
 10
0.84675010020810826
 20
-95.140642793357415
 30
0
 11
1.5275702039062609
 21
-92.694002875933052
 31
0
  0
ARC
  5
522
330
517
100
AcDbEntity
  8
Plywoodparts
 62
7
100
AcDbCircle
 10
1.6792861363090126
 20
-92.736220472445211
 30
0
 40
0.15748031496063741
100
AcDbArc
 50
15.550150907261459
 51
164.44984909231232
  0
LINE
  5
523
330
517
100
AcDbEntity
  8
Plywoodparts
 62
7
100
AcDbLine
 10
1.8310020687120485
 20
-92.694002875934189
 30
0
 11
2.5118221724101946
 21
-95.140642793358211
 31
0
  0
ARC
  5
524
330
517
100
AcDbEntity
  8
Plywoodparts
 62
7
100
AcDbCircle
 10
2.6635381048129463
 20
-95.098425196846
 30
0
 40
0.15748031496063544
100
AcDbArc
 50
195.5501509077076
 51
344.44984909259904
  0
LINE
  5
525
330
517
100
AcDbEntity
  8
Plywoodparts
 62
7
100
AcDbLine
 10
2.8152540372159822
 20
-95.140642793357415
 30
0
 11
3.4960741409141347
 21
-92.694002875933052
 31
0
  0
ARC
  5
526
330
517
100
AcDbEntity
  8
Plywoodparts
 62
7
100
AcDbCircle
 10
3.647790073318073
 20
-92.736220472440891
 30
0
 40
0.15748031496063544
100
AcDbArc
 50
90.000000000860865
 51
164.44984909394233
  0
LINE
  5
527
330
517
100
AcDbEntity
  8
Plywoodparts
 62
7
100
AcDbLine
 10
3.6477900733157069
 20
-92.5787401574803
 30
0
 11
4.0657088984220051
 21
-92.5787401574803
 31
0
  0
ARC
  5
528
330
517
100
AcDbEntity
  8
Plywoodparts
 62
7
100
AcDbCircle
 10
257.18241639342716
 20
-56.204966134404692
 30
0
 40
255.71687282968622
100
AcDbArc
 50
181.78729864328341
 51
188.17762337653525
  0
ARC
  5
529
330
517
100
AcDbEntity
  8
Plywoodparts
 62
7
100
AcDbCircle
 10
341.83988208631683
 20
-53.501507347720796
 30
0
 40
340.41747685943938
100
AcDbArc
 50
178.36351625709798
 51
181.797691134252
  0
ARC
  5
52A
330
517
100
AcDbEntity
  8
Plywoodparts
 62
7
100
AcDbCircle
 10
479.84817674722115
 20
-56.762035518327849
 30
0
 40
478.46308327677161
100
AcDbArc
 50
173.605797891006
 51
178.44519304956123
  0
LINE
  5
52B
330
517
100
AcDbEntity
  8
Plywoodparts
 62
7
100
AcDbLine
 10
4.3615195524494874
 20
-3.4763818350438092
 30
0
 11
4.7560638466211032
 21
-1.5262370596651458E-10
 31
0
  0
LINE
  5
52C
330
517
100
AcDbEntity
  8
Plywoodparts
 62
7
100
AcDbLine
 10
4.7560638466211032
 20
-1.5262370596651458E-10
 30
0
 11
4.3596870990322429
 21
8.0086152766707688E-16
 31
0
  0
ARC
  5
52D
330
517
100
AcDbEntity
  8
Plywoodparts
 62
7
100
AcDbCircle
 10
4.3596870990322429
 20
-0.13779527559051905
 30
0
 40
0.13779527559054802
100
AcDbArc
 50
90
 51
164.44984909430681
  0
LINE
  5
52E
330
517
100
AcDbEntity
  8
Plywoodparts
 62
7
100
AcDbLine
 10
4.22693565817854
 20
-0.10085487864699794
 30
0
 11
3.5461155544810627
 21
-2.54749479607085
 31
0
  0
ARC
  5
52F
330
517
100
AcDbEntity
  8
Plywoodparts
 62
7
100
AcDbCircle
 10
3.3754351305274004
 20
-2.4999999999967026
 30
0
 40
0.17716535433071143
100
AcDbArc
 50
195.55015090681104
 51
344.44984909299461
  0
LINE
  5
530
330
517
100
AcDbEntity
  8
Plywoodparts
 62
7
100
AcDbLine
 10
3.2047547065735391
 20
-2.5474947960702816
 30
0
 11
2.5239346028786969
 21
-0.10085487864563401
 31
0
  0
ARC
  5
531
330
517
100
AcDbEntity
  8
Plywoodparts
 62
7
100
AcDbCircle
 10
2.3911831620248805
 20
-0.13779527558870042
 30
0
 40
0.13779527559055119
100
AcDbArc
 50
15.550150905498379
 51
164.4498490950925
  0
LINE
  5
532
330
517
100
AcDbEntity
  8
Plywoodparts
 62
7
100
AcDbLine
 10
2.2584317211706662
 20
-0.1008548786469983
 30
0
 11
1.5776116174731887
 21
-2.54749479607085
 31
0
  0
ARC
  5
533
330
517
100
AcDbEntity
  8
Plywoodparts
 62
7
100
AcDbCircle
 10
1.4069311935195263
 20
-2.4999999999967026
 30
0
 40
0.17716535433071262
100
AcDbArc
 50
195.55015090681104
 51
344.44984909299461
  0
LINE
  5
534
330
517
100
AcDbEntity
  8
Plywoodparts
 62
7
100
AcDbLine
 10
1.236250769565665
 20
-2.5474947960702816
 30
0
 11
0.55543066587082279
 21
-0.10085487864563437
 31
0
  0
ARC
  5
535
330
517
100
AcDbEntity
  8
Plywoodparts
 62
7
100
AcDbCircle
 10
0.422679225017518
 20
-0.13779527559051977
 30
0
 40
0.13779527559055119
100
AcDbArc
 50
15.550150906284062
 51
90.000000000425445
  0
LINE
  5
536
330
517
100
AcDbEntity
  8
Plywoodparts
 62
7
100
AcDbLine
 10
0.4226792250164948
 20
7.764491399738013E-17
 30
0
 11
0
 21
0
 31
0
  0
CIRCLE
  5
537
330
517
100
AcDbEntity
  8
Plywoodparts
 62
7
100
AcDbCircle
 10
0.49379198033933069
 20
-35.0827946840551
 30
0
 40
0.098425188844772443
  0
ARC
  5
538
330
517
100
AcDbEntity
  8
Plywoodparts
 62
7
100
AcDbCircle
 10
-0.28553285880192958
 20
-35.715375511862135
 30
0
 40
0.43306991829249214
100
AcDbArc
 50
226.03439192236675
 51
215.74866310885892
  0
LINE
  5
539
330
517
100
AcDbEntity
  8
Plywoodparts
 62
7
100
AcDbLine
 10
-0.63700704054070956
 20
-35.968388265890553
 30
0
 11
-0.58618145510417508
 21
-36.02708046156846
 31
0
  0
ARC
  5
53A
330
517
100
AcDbEntity
  8
Plywoodparts
 62
7
100
AcDbCircle
 10
-0.35585288936819348
 20
-79.095805446698762
 30
0
 40
0.610234884803059
100
AcDbArc
 50
226.03439150809058
 51
215.74866269348942
  0
LINE
  5
53B
330
517
100
AcDbEntity
  8
Plywoodparts
 62
7
100
AcDbLine
 10
-0.85111196616937657
 20
-79.452323414656632
 30
0
 11
-0.77949409638031808
 21
-79.535026054539742
 31
0
  0
ARC
  5
53C
330
517
100
AcDbEntity
  8
Plywoodparts
 62
7
100
AcDbCircle
 10
-0.65492708730512161
 20
-60.7114082824429
 30
0
 40
0.43306991831945668
100
AcDbArc
 50
226.03439206641406
 51
215.74866325352332
  0
LINE
  5
53D
330
517
100
AcDbEntity
  8
Plywoodparts
 62
7
100
AcDbLine
 10
-1.0064012684267314
 20
-60.964421037374336
 30
0
 11
-0.95557568284228311
 21
-61.023113232924345
 31
0
  0
CIRCLE
  5
53E
330
517
100
AcDbEntity
  8
Plywoodparts
 62
7
100
AcDbCircle
 10
-2.0701059834047686
 20
-59.645565974562942
 30
0
 40
0.098425188836510233
  0
CIRCLE
  5
53F
330
517
100
AcDbEntity
  8
Plywoodparts
 62
7
100
AcDbCircle
 10
-1.0898192552000439
 20
-61.616045991291287
 30
0
 40
0.098425188836510233
  0
CIRCLE
  5
540
330
517
100
AcDbEntity
  8
Plywoodparts
 62
7
100
AcDbCircle
 10
0.0944510989850013
 20
-60.043622324803096
 30
0
 40
0.098425188836510233
  0
ARC
  5
541
330
517
100
AcDbEntity
  8
Plywoodparts
 62
7
100
AcDbCircle
 10
-0.42792390709204842
 20
-53.10955793583463
 30
0
 40
0.61023488490233468
100
AcDbArc
 50
226.03439173503827
 51
215.74866292212954
  0
LINE
  5
542
330
517
100
AcDbEntity
  8
Plywoodparts
 62
7
100
AcDbLine
 10
-0.92318298255090969
 20
-53.4660759058267
 30
0
 11
-0.85156511243299782
 21
-53.548778545424739
 31
0
  0
CIRCLE
  5
543
330
517
100
AcDbEntity
  8
Plywoodparts
 62
7
100
AcDbCircle
 10
-0.76160853967642372
 20
-36.599034141574748
 30
0
 40
0.098425188844772443
  0
CIRCLE
  5
544
330
517
100
AcDbEntity
  8
Plywoodparts
 62
7
100
AcDbCircle
 10
-1.6501458779480778
 20
-34.585515980137814
 30
0
 40
0.098425188836510233
  0
ENDBLK
  5
545
330
517
100
AcDbEntity
  8
0
100
AcDbBlockEnd
  0
BLOCK
  5
547
330
546
100
AcDbEntity
  8
0
100
AcDbBlockBegin
  2
23
 70
64
 10
0
 20
0
 30
1
  3
23
  0
LINE
  5
548
330
546
100
AcDbEntity
  8
Plywoodparts
 62
7
100
AcDbLine
 10
0
 20
0
 30
0
 11
-16.496062992125982
 21
-1.0100925370920092E-15
 31
0
  0
ARC
  5
549
330
546
100
AcDbEntity
  8
Plywoodparts
 62
7
100
AcDbCircle
 10
-16.496062992125982
 20
0.39370078740159792
 30
0
 40
0.39370078740157477
100
AcDbArc
 50
180
 51
270
  0
LINE
  5
54A
330
546
100
AcDbEntity
  8
Plywoodparts
 62
7
100
AcDbLine
 10
-16.889763779527559
 20
0.393700787401598
 30
0
 11
-16.889763779527559
 21
5.1181102362205015
 31
0
  0
ARC
  5
54B
330
546
100
AcDbEntity
  8
Plywoodparts
 62
7
100
AcDbCircle
 10
-17.283464566929133
 20
5.1181102362205007
 30
0
 40
0.39370078740157477
100
AcDbArc
 50
1.2925774225467756E-13
 51
90
  0
LINE
  5
54C
330
546
100
AcDbEntity
  8
Plywoodparts
 62
7
100
AcDbLine
 10
-17.283464566929133
 20
5.5118110236220428
 30
0
 11
-18.405511811023615
 21
5.5118110236220428
 31
0
  0
LINE
  5
54D
330
546
100
AcDbEntity
  8
Plywoodparts
 62
7
100
AcDbLine
 10
-18.405511811023615
 20
5.5118110236220428
 30
0
 11
-18.405511811023622
 21
-8.2677165354330668
 31
0
  0
LINE
  5
54E
330
546
100
AcDbEntity
  8
Plywoodparts
 62
7
100
AcDbLine
 10
-18.405511811023622
 20
-8.2677165354330668
 30
0
 11
1.9094488188976377
 21
-8.2677165354330668
 31
0
  0
LINE
  5
54F
330
546
100
AcDbEntity
  8
Plywoodparts
 62
7
100
AcDbLine
 10
1.9094488188976377
 20
-8.2677165354330668
 30
0
 11
1.9094488188976404
 21
5.5118110236220446
 31
0
  0
LINE
  5
550
330
546
100
AcDbEntity
  8
Plywoodparts
 62
7
100
AcDbLine
 10
1.9094488188976404
 20
5.5118110236220446
 30
0
 11
0.78740157480314965
 21
5.5118110236220446
 31
0
  0
ARC
  5
551
330
546
100
AcDbEntity
  8
Plywoodparts
 62
7
100
AcDbCircle
 10
0.78740157480314976
 20
5.1181102362205024
 30
0
 40
0.39370078740157477
100
AcDbArc
 50
90.000000000000028
 51
180
  0
LINE
  5
552
330
546
100
AcDbEntity
  8
Plywoodparts
 62
7
100
AcDbLine
 10
0.3937007874015756
 20
5.1181102362205024
 30
0
 11
0.39370078740157582
 21
0.39370078740159903
 31
0
  0
ARC
  5
553
330
546
100
AcDbEntity
  8
Plywoodparts
 62
7
100
AcDbCircle
 10
-2.410722045565804E-17
 20
0.393700787401599
 30
0
 40
0.39370078740157477
100
AcDbArc
 50
270
 51
8.0786088909173111E-15
  0
CIRCLE
  5
554
330
546
100
AcDbEntity
  8
Plywoodparts
 62
7
100
AcDbCircle
 10
-2.933070866141732
 20
-3.3464566929133643
 30
0
 40
0.0984251968503933
  0
CIRCLE
  5
555
330
546
100
AcDbEntity
  8
Plywoodparts
 62
7
100
AcDbCircle
 10
-13.562992125984252
 20
-3.3464566929133648
 30
0
 40
0.0984251968503933
  0
ENDBLK
  5
556
330
546
100
AcDbEntity
  8
0
100
AcDbBlockEnd
  0
BLOCK
  5
558
330
557
100
AcDbEntity
  8
0
100
AcDbBlockBegin
  2
18
 70
64
 10
0
 20
0
 30
1
  3
18
  0
LINE
  5
559
330
557
100
AcDbEntity
  8
Plywoodparts
 62
7
100
AcDbLine
 10
0
 20
0
 30
0
 11
-0.80684587839373112
 21
9.403897175521422
 31
0
  0
LINE
  5
55A
330
557
100
AcDbEntity
  8
Plywoodparts
 62
7
100
AcDbLine
 10
-0.80684587839373112
 20
9.403897175521422
 30
0
 11
-1.1339511530468736
 21
9.4097971461717975
 31
0
  0
LINE
  5
55B
330
557
100
AcDbEntity
  8
Plywoodparts
 62
7
100
AcDbLine
 10
-1.1339511530468736
 20
9.4097971461717975
 30
0
 11
-0.32198581688031425
 21
0.0096513206202643934
 31
0
  0
ARC
  5
55C
330
557
100
AcDbEntity
  8
Plywoodparts
 62
7
100
AcDbCircle
 10
8.1811768853330626
 20
0.97381884746351988
 30
0
 40
8.55765125254185
100
AcDbArc
 50
186.4690971378553
 51
202.50286998083104
  0
ARC
  5
55D
330
557
100
AcDbEntity
  8
Plywoodparts
 62
7
100
AcDbCircle
 10
8.5338391504358224
 20
1.1745074074516431
 30
0
 40
8.9604133501137788
100
AcDbArc
 50
202.82536221231408
 51
246.10664961372439
  0
LINE
  5
55E
330
557
100
AcDbEntity
  8
Plywoodparts
 62
7
100
AcDbLine
 10
4.9045538471444674
 20
-7.0180071999328666
 30
0
 11
7.1098141882090511
 21
-7.1351264100761673
 31
0
  0
ARC
  5
55F
330
557
100
AcDbEntity
  8
Plywoodparts
 62
7
100
AcDbCircle
 10
11.430830094233826
 20
3.8264095334908466
 30
0
 40
11.782463609204685
100
AcDbArc
 50
245.02564652635275
 51
248.48573866600623
  0
ARC
  5
560
330
557
100
AcDbEntity
  8
Plywoodparts
 62
7
100
AcDbCircle
 10
10.670776776509809
 20
2.4100752508698529
 30
0
 40
10.178063718080511
100
AcDbArc
 50
219.01384511833561
 51
245.5378774212802
  0
LINE
  5
561
330
557
100
AcDbEntity
  8
Plywoodparts
 62
7
100
AcDbLine
 10
2.762483679807449
 20
-3.9970989582459988
 30
0
 11
0.42154920899645631
 21
-1.0581707914738558
 31
0
  0
ARC
  5
562
330
557
100
AcDbEntity
  8
Plywoodparts
 62
7
100
AcDbCircle
 10
1.9612979328869926
 20
0.16828002991854887
 30
0
 40
1.9685039370080393
100
AcDbArc
 50
184.90398701771562
 51
218.53825433862156
  0
ENDBLK
  5
563
330
557
100
AcDbEntity
  8
0
100
AcDbBlockEnd
  0
BLOCK
  5
565
330
564
100
AcDbEntity
  8
0
100
AcDbBlockBegin
  2
44
 70
64
 10
0
 20
0
 30
1
  3
44
  0
ARC
  5
566
330
564
100
AcDbEntity
  8
Plywoodparts
 62
7
100
AcDbCircle
 10
0.11810989233363559
 20
-48.113466889270455
 30
0
 40
48.113611858304722
100
AcDbArc
 50
90.140650532868946
 51
94.187657638170677
  0
LINE
  5
567
330
564
100
AcDbEntity
  8
Plywoodparts
 62
7
100
AcDbLine
 10
-3.3953076630374435
 20
-0.1283072757691455
 30
0
 11
-4.1579086917827848
 21
-0.20274290021370664
 31
0
  0
LINE
  5
568
330
564
100
AcDbEntity
  8
Plywoodparts
 62
7
100
AcDbLine
 10
-4.1579086917827848
 20
-0.20274290021370664
 30
0
 11
-4.950047576199478
 21
-0.2813158952652654
 31
0
  0
ARC
  5
569
330
564
100
AcDbEntity
  8
Plywoodparts
 62
7
100
AcDbCircle
 10
1243.2672537209376
 20
-102.37905920674764
 30
0
 40
1252.3858752185
100
AcDbArc
 50
175.32391023378611
 51
176.34384741641682
  0
ARC
  5
56A
330
564
100
AcDbEntity
  8
Plywoodparts
 62
7
100
AcDbCircle
 10
1284.9023689230517
 20
-104.87469975655725
 30
0
 40
1294.0954049074289
100
AcDbArc
 50
176.35112848785596
 51
176.84466059617762
  0
ARC
  5
56B
330
564
100
AcDbEntity
  8
Plywoodparts
 62
7
100
AcDbCircle
 10
1359.9547308005322
 20
-109.22041525001387
 30
0
 40
1369.2732033370944
100
AcDbArc
 50
176.83595693526908
 51
177.30239229426661
  0
ARC
  5
56C
330
564
100
AcDbEntity
  8
Plywoodparts
 62
7
100
AcDbCircle
 10
1065.0955116442253
 20
-95.018524910247791
 30
0
 40
1074.072371122244
100
AcDbArc
 50
177.31885859137975
 51
177.91349015198
  0
ARC
  5
56D
330
564
100
AcDbEntity
  8
Plywoodparts
 62
7
100
AcDbCircle
 10
934.60528471304769
 20
-89.865960168179583
 30
0
 40
943.48114732809051
100
AcDbArc
 50
177.93767241829218
 51
178.6146097880997
  0
ARC
  5
56E
330
564
100
AcDbEntity
  8
Plywoodparts
 62
7
100
AcDbCircle
 10
977.625566077729
 20
-91.019710004112653
 30
0
 40
986.51675433572439
100
AcDbArc
 50
178.60802946036671
 51
179.25543613786391
  0
ARC
  5
56F
330
564
100
AcDbEntity
  8
Plywoodparts
 62
7
100
AcDbCircle
 10
822.98828049478016
 20
-88.931908700064241
 30
0
 40
831.86539882020077
100
AcDbArc
 50
179.26081923093437
 51
180.00039766517486
  0
LINE
  5
570
330
564
100
AcDbEntity
  8
Plywoodparts
 62
7
100
AcDbLine
 10
-8.8771183053847285
 20
-88.937682317285407
 30
0
 11
-8.4497818412434267
 21
-88.937682317296435
 31
0
  0
ARC
  5
571
330
564
100
AcDbEntity
  8
Plywoodparts
 62
7
100
AcDbCircle
 10
-8.449781841242995
 20
-89.0911512233294
 30
0
 40
0.15346890603320471
100
AcDbArc
 50
14.415427169409458
 51
90.000000000161151
  0
LINE
  5
572
330
564
100
AcDbEntity
  8
Plywoodparts
 62
7
100
AcDbLine
 10
-8.3011447249175632
 20
-89.05294503574828
 30
0
 11
-7.6722521176371261
 21
-91.499584953174349
 31
0
  0
ARC
  5
573
330
564
100
AcDbEntity
  8
Plywoodparts
 62
7
100
AcDbCircle
 10
-7.5321078595958637
 20
-91.467275238254615
 30
0
 40
0.14382048094799646
100
AcDbArc
 50
192.98247923558949
 51
347.01752076475873
  0
LINE
  5
574
330
564
100
AcDbEntity
  8
Plywoodparts
 62
7
100
AcDbLine
 10
-7.3919636015544086
 20
-91.4995849531735
 30
0
 11
-6.7630709942670464
 21
-89.05294503574919
 31
0
  0
ARC
  5
575
330
564
100
AcDbEntity
  8
Plywoodparts
 62
7
100
AcDbCircle
 10
-6.6229267362238229
 20
-89.085254750670344
 30
0
 40
0.1438204809503193
100
AcDbArc
 50
12.982479235682494
 51
167.01752076403434
  0
LINE
  5
576
330
564
100
AcDbEntity
  8
Plywoodparts
 62
7
100
AcDbLine
 10
-6.4827824781803942
 20
-89.052945035749872
 30
0
 11
-5.853889870893032
 21
-91.499584953174349
 31
0
  0
ARC
  5
577
330
564
100
AcDbEntity
  8
Plywoodparts
 62
7
100
AcDbCircle
 10
-5.7137456128498041
 20
-91.467275238280649
 30
0
 40
0.1438204809441429
100
AcDbArc
 50
192.98247922530703
 51
347.01752077504165
  0
LINE
  5
578
330
564
100
AcDbEntity
  8
Plywoodparts
 62
7
100
AcDbLine
 10
-5.5736013548063781
 20
-91.4995849531735
 30
0
 11
-4.9447087475190168
 21
-89.05294503574919
 31
0
  0
ARC
  5
579
330
564
100
AcDbEntity
  8
Plywoodparts
 62
7
100
AcDbCircle
 10
-4.804564489475788
 20
-89.085254750651188
 30
0
 40
0.14382048094595512
100
AcDbArc
 50
12.982479228246426
 51
167.01752077147128
  0
LINE
  5
57A
330
564
100
AcDbEntity
  8
Plywoodparts
 62
7
100
AcDbLine
 10
-4.6644202314323637
 20
-89.052945035749872
 30
0
 11
-4.0355276241450033
 21
-91.499584953174349
 31
0
  0
ARC
  5
57B
330
564
100
AcDbEntity
  8
Plywoodparts
 62
7
100
AcDbCircle
 10
-3.895383366101774
 20
-91.467275238237
 30
0
 40
0.14382048095397362
100
AcDbArc
 50
192.98247924225413
 51
347.01752075809463
  0
LINE
  5
57C
330
564
100
AcDbEntity
  8
Plywoodparts
 62
7
100
AcDbLine
 10
-3.7552391080583463
 20
-91.4995849531735
 30
0
 11
-3.1263465007749218
 21
-89.05294503574919
 31
0
  0
ARC
  5
57D
330
564
100
AcDbEntity
  8
Plywoodparts
 62
7
100
AcDbCircle
 10
-2.9862022427317019
 20
-89.0852547506417
 30
0
 40
0.14382048094389843
100
AcDbArc
 50
12.982479224561294
 51
167.01752077515565
  0
LINE
  5
57E
330
564
100
AcDbEntity
  8
Plywoodparts
 62
7
100
AcDbLine
 10
-2.8460579846882776
 20
-89.052945035749872
 30
0
 11
-2.217165377400907
 21
-91.499584953174349
 31
0
  0
ARC
  5
57F
330
564
100
AcDbEntity
  8
Plywoodparts
 62
7
100
AcDbCircle
 10
-2.0770211193576826
 20
-91.467275238240859
 30
0
 40
0.14382048095305197
100
AcDbArc
 50
192.98247924075403
 51
347.01752075959536
  0
LINE
  5
580
330
564
100
AcDbEntity
  8
Plywoodparts
 62
7
100
AcDbLine
 10
-1.9368768613142529
 20
-91.4995849531735
 30
0
 11
-1.3079842540268907
 21
-89.05294503574919
 31
0
  0
ARC
  5
581
330
564
100
AcDbEntity
  8
Plywoodparts
 62
7
100
AcDbCircle
 10
-1.1678399959836698
 20
-89.085254750650734
 30
0
 40
0.14382048094585
100
AcDbArc
 50
12.982479228069574
 51
167.0175207716471
  0
LINE
  5
582
330
564
100
AcDbEntity
  8
Plywoodparts
 62
7
100
AcDbLine
 10
-1.0276957379402421
 20
-89.052945035749872
 30
0
 11
-0.39880313065287637
 21
-91.499584953174349
 31
0
  0
ARC
  5
583
330
564
100
AcDbEntity
  8
Plywoodparts
 62
7
100
AcDbCircle
 10
-0.25865887260965109
 20
-91.4672752382586
 30
0
 40
0.14382048094903818
100
AcDbArc
 50
192.98247923386916
 51
347.01752076647995
  0
LINE
  5
584
330
564
100
AcDbEntity
  8
Plywoodparts
 62
7
100
AcDbLine
 10
-0.11851461456622328
 20
-91.4995849531735
 30
0
 11
0.51037799272114082
 21
-89.05294503574919
 31
0
  0
ARC
  5
585
330
564
100
AcDbEntity
  8
Plywoodparts
 62
7
100
AcDbCircle
 10
0.65052225076239811
 20
-89.085254750650734
 30
0
 40
0.14382048094396929
100
AcDbArc
 50
12.982479228246064
 51
167.0175207714714
  0
LINE
  5
586
330
564
100
AcDbEntity
  8
Plywoodparts
 62
7
100
AcDbLine
 10
0.79066650880385392
 20
-89.052945035749872
 30
0
 11
1.4195591160912191
 21
-91.499584953174349
 31
0
  0
ARC
  5
587
330
564
100
AcDbEntity
  8
Plywoodparts
 62
7
100
AcDbCircle
 10
1.5597033741344444
 20
-91.467275238259731
 30
0
 40
0.14382048094877914
100
AcDbArc
 50
192.98247923342782
 51
347.01752076692071
  0
LINE
  5
588
330
564
100
AcDbEntity
  8
Plywoodparts
 62
7
100
AcDbLine
 10
1.6998476321778655
 20
-91.4995849531735
 30
0
 11
2.3287402394652368
 21
-89.05294503574919
 31
0
  0
ARC
  5
589
330
564
100
AcDbEntity
  8
Plywoodparts
 62
7
100
AcDbCircle
 10
2.4688844975084567
 20
-89.08525475066017
 30
0
 40
0.14382048094799368
100
AcDbArc
 50
12.982479231732642
 51
167.01752076798397
  0
LINE
  5
58A
330
564
100
AcDbEntity
  8
Plywoodparts
 62
7
100
AcDbLine
 10
2.6090287555518845
 20
-89.052945035749872
 30
0
 11
3.2379213628392525
 21
-91.499584953174349
 31
0
  0
ARC
  5
58B
330
564
100
AcDbEntity
  8
Plywoodparts
 62
7
100
AcDbCircle
 10
3.3780656208824742
 20
-91.467275238277068
 30
0
 40
0.14382048094492006
100
AcDbArc
 50
192.98247922669782
 51
347.0175207736512
  0
LINE
  5
58C
330
564
100
AcDbEntity
  8
Plywoodparts
 62
7
100
AcDbLine
 10
3.5182098789258975
 20
-91.4995849531735
 30
0
 11
4.1471024862132655
 21
-89.05294503574919
 31
0
  0
ARC
  5
58D
330
564
100
AcDbEntity
  8
Plywoodparts
 62
7
100
AcDbCircle
 10
4.2872467442545261
 20
-89.085254750690467
 30
0
 40
0.14382048095294134
100
AcDbArc
 50
12.982479243670481
 51
167.01752075604708
  0
LINE
  5
58E
330
564
100
AcDbEntity
  8
Plywoodparts
 62
7
100
AcDbLine
 10
4.4273910022959839
 20
-89.052945035749872
 30
0
 11
5.0562836095833461
 21
-91.499584953174349
 31
0
  0
ARC
  5
58F
330
564
100
AcDbEntity
  8
Plywoodparts
 62
7
100
AcDbCircle
 10
5.1964278676265732
 20
-91.467275238268087
 30
0
 40
0.14382048094697716
100
AcDbArc
 50
192.98247923018386
 51
347.01752077016556
  0
LINE
  5
590
330
564
100
AcDbEntity
  8
Plywoodparts
 62
7
100
AcDbLine
 10
5.3365721256700063
 20
-91.4995849531735
 30
0
 11
5.9654647329573631
 21
-89.05294503574919
 31
0
  0
ARC
  5
591
330
564
100
AcDbEntity
  8
Plywoodparts
 62
7
100
AcDbCircle
 10
6.1056089910005955
 20
-89.085254750638569
 30
0
 40
0.14382048094312128
100
AcDbArc
 50
12.982479223347944
 51
167.01752077637039
  0
LINE
  5
592
330
564
100
AcDbEntity
  8
Plywoodparts
 62
7
100
AcDbLine
 10
6.2457532490440162
 20
-89.052945035749872
 30
0
 11
6.8746458563313784
 21
-91.499584953174349
 31
0
  0
ARC
  5
593
330
564
100
AcDbEntity
  8
Plywoodparts
 62
7
100
AcDbCircle
 10
7.0147901143746072
 20
-91.4672752382487
 30
0
 40
0.14382048095132008
100
AcDbArc
 50
192.98247923770845
 51
347.0175207626404
  0
LINE
  5
594
330
564
100
AcDbEntity
  8
Plywoodparts
 62
7
100
AcDbLine
 10
7.154934372418035
 20
-91.4995849531735
 30
0
 11
7.7838269797053918
 21
-89.05294503574919
 31
0
  0
ARC
  5
595
330
564
100
AcDbEntity
  8
Plywoodparts
 62
7
100
AcDbCircle
 10
7.9239712377486224
 20
-89.0852547506559
 30
0
 40
0.14382048094700078
100
AcDbArc
 50
12.982479230078278
 51
167.01752076963993
  0
LINE
  5
596
330
564
100
AcDbEntity
  8
Plywoodparts
 62
7
100
AcDbLine
 10
8.0641154957920431
 20
-89.052945035749872
 30
0
 11
8.6930081030754724
 21
-91.499584953174349
 31
0
  0
ARC
  5
597
330
564
100
AcDbEntity
  8
Plywoodparts
 62
7
100
AcDbCircle
 10
8.8416452194015367
 20
-91.461378765595555
 30
0
 40
0.15346890603320471
100
AcDbArc
 50
194.415427168508
 51
270.000000000264
  0
LINE
  5
598
330
564
100
AcDbEntity
  8
Plywoodparts
 62
7
100
AcDbLine
 10
8.8416452194022437
 20
-91.6148476716287
 30
0
 11
9.2624300599770439
 21
-91.6148476716271
 31
0
  0
LINE
  5
599
330
564
100
AcDbEntity
  8
Plywoodparts
 62
7
100
AcDbLine
 10
9.2624300599770439
 20
-91.6148476716271
 30
0
 11
9.2686447892683024
 21
-89.346918401938865
 31
0
  0
ARC
  5
59A
330
564
100
AcDbEntity
  8
Plywoodparts
 62
7
100
AcDbCircle
 10
-755.28706366618042
 20
-88.498448931626186
 30
0
 40
764.55617925189358
100
AcDbArc
 50
359.93641575205032
 51
0.77177360488247015
  0
ARC
  5
59B
330
564
100
AcDbEntity
  8
Plywoodparts
 62
7
100
AcDbCircle
 10
-960.26087389864892
 20
-90.703452705892
 30
0
 40
969.54125444301565
100
AcDbArc
 50
0.73890997436569661
 51
1.3976520798414105
  0
ARC
  5
59C
330
564
100
AcDbEntity
  8
Plywoodparts
 62
7
100
AcDbCircle
 10
-952.732012847236
 20
-90.423133331088479
 30
0
 40
962.00780082264953
100
AcDbArc
 50
1.3918988478948819
 51
2.0557993957883576
  0
ARC
  5
59D
330
564
100
AcDbEntity
  8
Plywoodparts
 62
7
100
AcDbCircle
 10
-984.24288178548727
 20
-91.668954790627367
 30
0
 40
993.54308594469285
100
AcDbArc
 50
2.0624103242974234
 51
2.70523882498892
  0
ARC
  5
59E
330
564
100
AcDbEntity
  8
Plywoodparts
 62
7
100
AcDbCircle
 10
-1269.143535453755
 20
-104.5913619232529
 30
0
 40
1278.7362583966417
100
AcDbArc
 50
2.681102714488274
 51
3.1805627811432511
  0
ARC
  5
59F
330
564
100
AcDbEntity
  8
Plywoodparts
 62
7
100
AcDbCircle
 10
-1330.348293445074
 20
-107.5994551760061
 30
0
 40
1340.0136940975551
100
AcDbArc
 50
3.1637867972514409
 51
3.6404069235961329
  0
ARC
  5
5A0
330
564
100
AcDbEntity
  8
Plywoodparts
 62
7
100
AcDbCircle
 10
-1225.5608739423733
 20
-101.11787658729115
 30
0
 40
1235.0261850819725
100
AcDbArc
 50
3.6489852714850648
 51
4.6832592183072981
  0
LINE
  5
5A1
330
564
100
AcDbEntity
  8
Plywoodparts
 62
7
100
AcDbLine
 10
5.34191095411304
 20
-0.281315895241676
 30
0
 11
4.4805366663509965
 21
-0.19649126823929947
 31
0
  0
LINE
  5
5A2
330
564
100
AcDbEntity
  8
Plywoodparts
 62
7
100
AcDbLine
 10
4.4805366663509965
 20
-0.19649126823929947
 30
0
 11
3.6177758705650191
 21
-0.12717552181277392
 31
0
  0
LINE
  5
5A3
330
564
100
AcDbEntity
  8
Plywoodparts
 62
7
100
AcDbLine
 10
3.6177758705650191
 20
-0.12717552181277392
 30
0
 11
3.6160360810164285
 21
-0.12717552181214864
 31
0
  0
ARC
  5
5A4
330
564
100
AcDbEntity
  8
Plywoodparts
 62
7
100
AcDbCircle
 10
0.11804403852265347
 20
-48.115219418099514
 30
0
 40
48.115364545240162
100
AcDbArc
 50
85.830912830118109
 51
89.859275352621466
  0
ARC
  5
5A5
330
564
100
AcDbEntity
  8
Plywoodparts
 62
7
100
AcDbCircle
 10
0.11811023613842112
 20
-48.111749529127849
 30
0
 40
48.111894504180704
100
AcDbArc
 50
89.859344036970327
 51
90.140655962833478
  0
CIRCLE
  5
5A6
330
564
100
AcDbEntity
  8
Plywoodparts
 62
7
100
AcDbCircle
 10
0.19593168907940853
 20
-87.323509088949947
 30
0
 40
0.07874015748031496
  0
CIRCLE
  5
5A7
330
564
100
AcDbEntity
  8
Plywoodparts
 62
7
100
AcDbCircle
 10
0.19593168907941905
 20
-1.6935878291074573
 30
0
 40
0.078740157480315362
  0
ARC
  5
5A8
330
564
100
AcDbEntity
  8
Plywoodparts
 62
7
100
AcDbCircle
 10
2.3612860197880767
 20
-31.307245941182202
 30
0
 40
0.07874015748031496
100
AcDbArc
 50
90
 51
270
  0
LINE
  5
5A9
330
564
100
AcDbEntity
  8
Plywoodparts
 62
7
100
AcDbLine
 10
2.3612860197880767
 20
-31.385986098662556
 30
0
 11
3.5423883819928044
 21
-31.385986098662556
 31
0
  0
ARC
  5
5AA
330
564
100
AcDbEntity
  8
Plywoodparts
 62
7
100
AcDbCircle
 10
3.5423883819928044
 20
-31.307245941182202
 30
0
 40
0.07874015748031496
100
AcDbArc
 50
270
 51
90
  0
LINE
  5
5AB
330
564
100
AcDbEntity
  8
Plywoodparts
 62
7
100
AcDbLine
 10
3.5423883819928044
 20
-31.228505783701905
 30
0
 11
2.3612860197880767
 21
-31.228505783701905
 31
0
  0
ARC
  5
5AC
330
564
100
AcDbEntity
  8
Plywoodparts
 62
7
100
AcDbCircle
 10
-1.9694226432885726
 20
-31.307245941182202
 30
0
 40
0.078740157480319289
100
AcDbArc
 50
270.00000120742015
 51
89.999998792579845
  0
LINE
  5
5AD
330
564
100
AcDbEntity
  8
Plywoodparts
 62
7
100
AcDbLine
 10
-1.9694226416292453
 20
-31.228505783701905
 30
0
 11
-3.1505250038339696
 21
-31.228505783701905
 31
0
  0
ARC
  5
5AE
330
564
100
AcDbEntity
  8
Plywoodparts
 62
7
100
AcDbCircle
 10
-3.1505249849876638
 20
-31.307245941182202
 30
0
 40
0.078740157480319289
100
AcDbArc
 50
90.000013713635056
 51
269.9999862863649
  0
LINE
  5
5AF
330
564
100
AcDbEntity
  8
Plywoodparts
 62
7
100
AcDbLine
 10
-3.1505250038339696
 20
-31.385986098662556
 30
0
 11
-1.9694226416292453
 21
-31.385986098662556
 31
0
  0
ENDBLK
  5
5B0
330
564
100
AcDbEntity
  8
0
100
AcDbBlockEnd
  0
BLOCK
  5
20
330
1F
100
AcDbEntity
  8
0
100
AcDbBlockBegin
  2
*Model_Space
 70
64
 10
0
 20
0
 30
0
  3
*Model_Space
  0
ENDBLK
  5
21
330
1F
100
AcDbEntity
  8
0
100
AcDbBlockEnd
  0
BLOCK
  5
67E
330
67D
100
AcDbEntity
  8
0
 67
1
100
AcDbBlockBegin
  2
*Paper_Space
 70
64
 10
0
 20
0
 30
0
  3
*Paper_Space
  0
ENDBLK
  5
67F
330
67D
100
AcDbEntity
  8
0
100
AcDbBlockEnd
  0
ENDSEC
  0
SECTION
  2
ENTITIES
  0
INSERT
  5
5B1
330
1F
100
AcDbEntity
  8
0
100
AcDbBlockReference
  2
59
 10
-1.9999999999999996
 20
24.400000000000002
 30
1
 41
1
 42
1
 43
1
 50
90
210
0
220
0
230
-1
  0
INSERT
  5
5B3
330
1F
100
AcDbEntity
  8
0
100
AcDbBlockReference
  2
45
 10
90.999999999999986
 20
34.399999999999991
 30
1
 41
1
 42
1
 43
1
 50
270
  0
INSERT
  5
5B5
330
1F
100
AcDbEntity
  8
0
100
AcDbBlockReference
  2
3
 10
17.4
 20
46.2
 30
1
 41
1
 42
1
 43
1
 50
180
  0
INSERT
  5
5B7
330
1F
100
AcDbEntity
  8
0
100
AcDbBlockReference
  2
53
 10
-94.399999999999991
 20
8.2
 30
1
 41
1
 42
1
 43
1
 50
90
210
0
220
0
230
-1
  0
INSERT
  5
5B9
330
1F
100
AcDbEntity
  8
0
100
AcDbBlockReference
  2
32
 10
3.1999999999999957
 20
29.599999999999998
 30
1
 41
1
 42
1
 43
1
 50
0
  0
INSERT
  5
5BB
330
1F
100
AcDbEntity
  8
0
100
AcDbBlockReference
  2
47
 10
-92.8
 20
43.6
 30
1
 41
1
 42
1
 43
1
 50
90
210
0
220
0
230
-1
  0
INSERT
  5
5BD
330
1F
100
AcDbEntity
  8
0
100
AcDbBlockReference
  2
39
 10
-3.2
 20
10.800000000000004
 30
1
 41
1
 42
1
 43
1
 50
270
210
0
220
0
230
-1
  0
INSERT
  5
5BF
330
1F
100
AcDbEntity
  8
0
100
AcDbBlockReference
  2
2
 10
-0.59999999999999987
 20
43.600000000000009
 30
1
 41
1
 42
1
 43
1
 50
45
210
0
220
0
230
-1
  0
INSERT
  5
5C1
330
1F
100
AcDbEntity
  8
0
100
AcDbBlockReference
  2
54
 10
26.199999999999996
 20
11.199999999999998
 30
1
 41
1
 42
1
 43
1
 50
180
  0
INSERT
  5
5C3
330
1F
100
AcDbEntity
  8
0
100
AcDbBlockReference
  2
17
 10
-36.199999999999989
 20
18
 30
1
 41
1
 42
1
 43
1
 50
270
210
0
220
0
230
-1
  0
INSERT
  5
5C5
330
1F
100
AcDbEntity
  8
0
100
AcDbBlockReference
  2
38
 10
54.2
 20
10.000000000000005
 30
1
 41
1
 42
1
 43
1
 50
0
  0
INSERT
  5
5C7
330
1F
100
AcDbEntity
  8
0
100
AcDbBlockReference
  2
38
 10
66
 20
9.79999999999999
 30
1
 41
1
 42
1
 43
1
 50
0
  0
INSERT
  5
5C9
330
1F
100
AcDbEntity
  8
0
100
AcDbBlockReference
  2
39
 10
67.2
 20
10.599999999999998
 30
1
 41
1
 42
1
 43
1
 50
180
  0
INSERT
  5
5CB
330
1F
100
AcDbEntity
  8
0
100
AcDbBlockReference
  2
41
 10
-90.999999999999986
 20
10.599999999999998
 30
1
 41
1
 42
1
 43
1
 50
135
210
0
220
0
230
-1
  0
INSERT
  5
5CD
330
1F
100
AcDbEntity
  8
0
100
AcDbBlockReference
  2
57
 10
30.799999999999994
 20
13.200000000000001
 30
1
 41
1
 42
1
 43
1
 50
90
  0
INSERT
  5
5CF
330
1F
100
AcDbEntity
  8
0
100
AcDbBlockReference
  2
30
 10
94.999999999999986
 20
19.6
 30
1
 41
1
 42
1
 43
1
 50
180
  0
INSERT
  5
5D1
330
1F
100
AcDbEntity
  8
0
100
AcDbBlockReference
  2
34
 10
1.8000000000000003
 20
44.000000000000007
 30
1
 41
1
 42
1
 43
1
 50
0
  0
INSERT
  5
5D3
330
1F
100
AcDbEntity
  8
0
100
AcDbBlockReference
  2
37
 10
3.5999999999999992
 20
28.2
 30
1
 41
1
 42
1
 43
1
 50
90
  0
INSERT
  5
5D5
330
1F
100
AcDbEntity
  8
0
100
AcDbBlockReference
  2
56
 10
31.199999999999996
 20
11.4
 30
1
 41
1
 42
1
 43
1
 50
350
  0
INSERT
  5
5D7
330
1F
100
AcDbEntity
  8
0
100
AcDbBlockReference
  2
2
 10
-2.2000000000000006
 20
46.000000000000014
 30
1
 41
1
 42
1
 43
1
 50
45
210
0
220
0
230
-1
  0
INSERT
  5
5D9
330
1F
100
AcDbEntity
  8
0
100
AcDbBlockReference
  2
19
 10
11.599999999999984
 20
28.999999999999996
 30
1
 41
1
 42
1
 43
1
 50
225
  0
INSERT
  5
5DB
330
1F
100
AcDbEntity
  8
0
100
AcDbBlockReference
  2
32
 10
81.999999999999986
 20
12.400000000000002
 30
1
 41
1
 42
1
 43
1
 50
0
  0
INSERT
  5
5DD
330
1F
100
AcDbEntity
  8
0
100
AcDbBlockReference
  2
32
 10
94.399999999999991
 20
32.6
 30
1
 41
1
 42
1
 43
1
 50
0
  0
INSERT
  5
5DF
330
1F
100
AcDbEntity
  8
0
100
AcDbBlockReference
  2
2
 10
-2.2
 20
46.6
 30
1
 41
1
 42
1
 43
1
 50
0
210
0
220
0
230
-1
  0
INSERT
  5
5E1
330
1F
100
AcDbEntity
  8
0
100
AcDbBlockReference
  2
55
 10
10.000000000000004
 20
19.8
 30
1
 41
1
 42
1
 43
1
 50
0
  0
INSERT
  5
5E3
330
1F
100
AcDbEntity
  8
0
100
AcDbBlockReference
  2
43
 10
33.599999999999994
 20
46.400000000000006
 30
1
 41
1
 42
1
 43
1
 50
315
  0
INSERT
  5
5E5
330
1F
100
AcDbEntity
  8
0
100
AcDbBlockReference
  2
43
 10
-40.199999999999996
 20
10.600000000000003
 30
1
 41
1
 42
1
 43
1
 50
135
210
0
220
0
230
-1
  0
INSERT
  5
5E7
330
1F
100
AcDbEntity
  8
0
100
AcDbBlockReference
  2
20
 10
-4.8000000000000087
 20
22.999999999999993
 30
1
 41
1
 42
1
 43
1
 50
225
210
0
220
0
230
-1
  0
INSERT
  5
5E9
330
1F
100
AcDbEntity
  8
0
100
AcDbBlockReference
  2
6
 10
-7.4
 20
46.6
 30
1
 41
1
 42
1
 43
1
 50
180
210
0
220
0
230
-1
  0
INSERT
  5
5EB
330
1F
100
AcDbEntity
  8
0
100
AcDbBlockReference
  2
55
 10
81.8
 20
12.400000000000004
 30
1
 41
1
 42
1
 43
1
 50
0
  0
INSERT
  5
5ED
330
1F
100
AcDbEntity
  8
0
100
AcDbBlockReference
  2
57
 10
36.799999999999976
 20
32.999999999999993
 30
1
 41
1
 42
1
 43
1
 50
225
  0
INSERT
  5
5EF
330
1F
100
AcDbEntity
  8
0
100
AcDbBlockReference
  2
19
 10
39.200000000000017
 20
45.999999999999993
 30
1
 41
1
 42
1
 43
1
 50
225
  0
INSERT
  5
5F1
330
1F
100
AcDbEntity
  8
0
100
AcDbBlockReference
  2
35
 10
-9
 20
29.799999999999997
 30
1
 41
1
 42
1
 43
1
 50
180
210
0
220
0
230
-1
  0
INSERT
  5
5F3
330
1F
100
AcDbEntity
  8
0
100
AcDbBlockReference
  2
36
 10
11.800000000000003
 20
20.6
 30
1
 41
1
 42
1
 43
1
 50
90
  0
INSERT
  5
5F5
330
1F
100
AcDbEntity
  8
0
100
AcDbBlockReference
  2
6
 10
-30.4
 20
15.000000000000007
 30
1
 41
1
 42
1
 43
1
 50
270
210
0
220
0
230
-1
  0
INSERT
  5
5F7
330
1F
100
AcDbEntity
  8
0
100
AcDbBlockReference
  2
6
 10
31.400000000000002
 20
14.399999999999997
 30
1
 41
1
 42
1
 43
1
 50
270
  0
INSERT
  5
5F9
330
1F
100
AcDbEntity
  8
0
100
AcDbBlockReference
  2
6
 10
33.8
 20
14.799999999999992
 30
1
 41
1
 42
1
 43
1
 50
90
  0
INSERT
  5
5FB
330
1F
100
AcDbEntity
  8
0
100
AcDbBlockReference
  2
20
 10
28.999999999999982
 20
31.599999999999994
 30
1
 41
1
 42
1
 43
1
 50
225
  0
INSERT
  5
5FD
330
1F
100
AcDbEntity
  8
0
100
AcDbBlockReference
  2
2
 10
-10.200000000000001
 20
10.799999999999999
 30
1
 41
1
 42
1
 43
1
 50
180
210
0
220
0
230
-1
  0
INSERT
  5
5FF
330
1F
100
AcDbEntity
  8
0
100
AcDbBlockReference
  2
51
 10
102.91968512038361
 20
0.20000000000000298
 30
1
 41
1
 42
1
 43
1
 50
90
  0
INSERT
  5
601
330
1F
100
AcDbEntity
  8
0
100
AcDbBlockReference
  2
49
 10
-169.71968512038362
 20
46.400000000000006
 30
1
 41
1
 42
1
 43
1
 50
270
210
0
220
0
230
-1
  0
INSERT
  5
603
330
1F
100
AcDbEntity
  8
0
100
AcDbBlockReference
  2
24
 10
121.5196851203836
 20
30.4
 30
1
 41
1
 42
1
 43
1
 50
0
  0
INSERT
  5
605
330
1F
100
AcDbEntity
  8
0
100
AcDbBlockReference
  2
5
 10
-169.31968512038361
 20
32.20000000000001
 30
1
 41
1
 42
1
 43
1
 50
270
210
0
220
0
230
-1
  0
INSERT
  5
607
330
1F
100
AcDbEntity
  8
0
100
AcDbBlockReference
  2
26
 10
172.31968512038361
 20
4.1999999999999993
 30
1
 41
1
 42
1
 43
1
 50
270
  0
INSERT
  5
609
330
1F
100
AcDbEntity
  8
0
100
AcDbBlockReference
  2
21
 10
-102.7196851203836
 20
20.600000000000005
 30
1
 41
1
 42
1
 43
1
 50
180
210
0
220
0
230
-1
  0
INSERT
  5
60B
330
1F
100
AcDbEntity
  8
0
100
AcDbBlockReference
  2
21
 10
-132.5196851203836
 20
27.399999999999995
 30
1
 41
1
 42
1
 43
1
 50
0
210
0
220
0
230
-1
  0
INSERT
  5
60D
330
1F
100
AcDbEntity
  8
0
100
AcDbBlockReference
  2
7
 10
-196.71968512038359
 20
14.400000000000002
 30
1
 41
1
 42
1
 43
1
 50
90
210
0
220
0
230
-1
  0
INSERT
  5
60F
330
1F
100
AcDbEntity
  8
0
100
AcDbBlockReference
  2
40
 10
159.91968512038361
 20
12.599999999999996
 30
1
 41
1
 42
1
 43
1
 50
225
  0
INSERT
  5
611
330
1F
100
AcDbEntity
  8
0
100
AcDbBlockReference
  2
9
 10
-111.91968512038359
 20
46.199999999999989
 30
1
 41
1
 42
1
 43
1
 50
0
210
0
220
0
230
-1
  0
INSERT
  5
613
330
1F
100
AcDbEntity
  8
0
100
AcDbBlockReference
  2
12
 10
118.51968512038359
 20
35.8
 30
1
 41
1
 42
1
 43
1
 50
0
  0
INSERT
  5
615
330
1F
100
AcDbEntity
  8
0
100
AcDbBlockReference
  2
11
 10
-132.31968512038361
 20
36.2
 30
1
 41
1
 42
1
 43
1
 50
270
210
0
220
0
230
-1
  0
INSERT
  5
617
330
1F
100
AcDbEntity
  8
0
100
AcDbBlockReference
  2
29
 10
128.71968512038359
 20
42.800000000000004
 30
1
 41
1
 42
1
 43
1
 50
270
  0
INSERT
  5
619
330
1F
100
AcDbEntity
  8
0
100
AcDbBlockReference
  2
8
 10
137.11968512038359
 20
46.6
 30
1
 41
1
 42
1
 43
1
 50
0
  0
INSERT
  5
61B
330
1F
100
AcDbEntity
  8
0
100
AcDbBlockReference
  2
28
 10
-167.71968512038359
 20
34.399999999999991
 30
1
 41
1
 42
1
 43
1
 50
0
210
0
220
0
230
-1
  0
INSERT
  5
61D
330
1F
100
AcDbEntity
  8
0
100
AcDbBlockReference
  2
28
 10
-169.91968512038361
 20
17.6
 30
1
 41
1
 42
1
 43
1
 50
0
210
0
220
0
230
-1
  0
INSERT
  5
61F
330
1F
100
AcDbEntity
  8
0
100
AcDbBlockReference
  2
31
 10
-156.31968512038361
 20
11.600000000000001
 30
1
 41
1
 42
1
 43
1
 50
90
210
0
220
0
230
-1
  0
INSERT
  5
621
330
1F
100
AcDbEntity
  8
0
100
AcDbBlockReference
  2
31
 10
170.91968512038358
 20
7.7999999999999989
 30
1
 41
1
 42
1
 43
1
 50
180
  0
INSERT
  5
623
330
1F
100
AcDbEntity
  8
0
100
AcDbBlockReference
  2
30
 10
191.51968512038357
 20
14.600000000000003
 30
1
 41
1
 42
1
 43
1
 50
270
  0
INSERT
  5
625
330
1F
100
AcDbEntity
  8
0
100
AcDbBlockReference
  2
4
 10
-192.31968512038358
 20
37.6
 30
1
 41
1
 42
1
 43
1
 50
270
210
0
220
0
230
-1
  0
INSERT
  5
627
330
1F
100
AcDbEntity
  8
0
100
AcDbBlockReference
  2
32
 10
181.31968512038358
 20
32.8
 30
1
 41
1
 42
1
 43
1
 50
0
  0
INSERT
  5
629
330
1F
100
AcDbEntity
  8
0
100
AcDbBlockReference
  2
22
 10
196.91968512038358
 20
46.6
 30
1
 41
1
 42
1
 43
1
 50
180
  0
INSERT
  5
62B
330
1F
100
AcDbEntity
  8
0
100
AcDbBlockReference
  2
13
 10
-176.11968512038359
 20
7.7999999999999989
 30
1
 41
1
 42
1
 43
1
 50
0
210
0
220
0
230
-1
  0
INSERT
  5
62D
330
1F
100
AcDbEntity
  8
0
100
AcDbBlockReference
  2
13
 10
195.5196851203836
 20
20.4
 30
1
 41
1
 42
1
 43
1
 50
0
  0
INSERT
  5
62F
330
1F
100
AcDbEntity
  8
0
100
AcDbBlockReference
  2
15
 10
-194.91968512038361
 20
31.999999999999996
 30
1
 41
1
 42
1
 43
1
 50
180
210
0
220
0
230
-1
  0
INSERT
  5
631
330
1F
100
AcDbEntity
  8
0
100
AcDbBlockReference
  2
14
 10
196.51968512038357
 20
20.6
 30
1
 41
1
 42
1
 43
1
 50
180
  0
INSERT
  5
633
330
1F
100
AcDbEntity
  8
0
100
AcDbBlockReference
  2
14
 10
199.31968512038361
 20
34.4
 30
1
 41
1
 42
1
 43
1
 50
0
  0
INSERT
  5
635
330
1F
100
AcDbEntity
  8
0
100
AcDbBlockReference
  2
33
 10
-117.7196851203836
 20
45.400000000000006
 30
1
 41
1
 42
1
 43
1
 50
270
210
0
220
0
230
-1
  0
INSERT
  5
637
330
1F
100
AcDbEntity
  8
0
100
AcDbBlockReference
  2
42
 10
-167.91968512038361
 20
34.8
 30
1
 41
1
 42
1
 43
1
 50
270
210
0
220
0
230
-1
  0
INSERT
  5
639
330
1F
100
AcDbEntity
  8
0
100
AcDbBlockReference
  2
42
 10
198.31968512038358
 20
46
 30
1
 41
1
 42
1
 43
1
 50
90
  0
INSERT
  5
63B
330
1F
100
AcDbEntity
  8
0
100
AcDbBlockReference
  2
48
 10
280.63937024076722
 20
3.7999999999999994
 30
1
 41
1
 42
1
 43
1
 50
90
  0
INSERT
  5
63D
330
1F
100
AcDbEntity
  8
0
100
AcDbBlockReference
  2
48
 10
205.23937024076722
 20
18
 30
1
 41
1
 42
1
 43
1
 50
270
  0
INSERT
  5
63F
330
1F
100
AcDbEntity
  8
0
100
AcDbBlockReference
  2
52
 10
208.0393702407672
 20
27.8
 30
1
 41
1
 42
1
 43
1
 50
270
  0
INSERT
  5
641
330
1F
100
AcDbEntity
  8
0
100
AcDbBlockReference
  2
47
 10
-264.83937024076721
 20
37.8
 30
1
 41
1
 42
1
 43
1
 50
90
210
0
220
0
230
-1
  0
INSERT
  5
643
330
1F
100
AcDbEntity
  8
0
100
AcDbBlockReference
  2
27
 10
-232.63937024076722
 20
42.800000000000004
 30
1
 41
1
 42
1
 43
1
 50
270
210
0
220
0
230
-1
  0
INSERT
  5
645
330
1F
100
AcDbEntity
  8
0
100
AcDbBlockReference
  2
1
 10
280.23937024076719
 20
29
 30
1
 41
1
 42
1
 43
1
 50
0
  0
INSERT
  5
647
330
1F
100
AcDbEntity
  8
0
100
AcDbBlockReference
  2
10
 10
-295.0393702407672
 20
0.6
 30
1
 41
1
 42
1
 43
1
 50
0
210
0
220
0
230
-1
  0
INSERT
  5
649
330
1F
100
AcDbEntity
  8
0
100
AcDbBlockReference
  2
16
 10
-282.23937024076719
 20
46.000000000000014
 30
1
 41
1
 42
1
 43
1
 50
270
210
0
220
0
230
-1
  0
INSERT
  5
64B
330
1F
100
AcDbEntity
  8
0
100
AcDbBlockReference
  2
16
 10
299.83937024076715
 20
5.8
 30
1
 41
1
 42
1
 43
1
 50
180
  0
INSERT
  5
64D
330
1F
100
AcDbEntity
  8
0
100
AcDbBlockReference
  2
17
 10
-299.83937024076715
 20
36.4
 30
1
 41
1
 42
1
 43
1
 50
0
210
0
220
0
230
-1
  0
INSERT
  5
64F
330
1F
100
AcDbEntity
  8
0
100
AcDbBlockReference
  2
11
 10
-266.43937024076718
 20
2.2
 30
1
 41
1
 42
1
 43
1
 50
0
210
0
220
0
230
-1
  0
INSERT
  5
651
330
1F
100
AcDbEntity
  8
0
100
AcDbBlockReference
  2
56
 10
-272.23937024076719
 20
31
 30
1
 41
1
 42
1
 43
1
 50
10
210
0
220
0
230
-1
  0
INSERT
  5
653
330
1F
100
AcDbEntity
  8
0
100
AcDbBlockReference
  2
56
 10
298.63937024076716
 20
8.5999999999999979
 30
1
 41
1
 42
1
 43
1
 50
210.00000000000003
  0
INSERT
  5
655
330
1F
100
AcDbEntity
  8
0
100
AcDbBlockReference
  2
56
 10
-295.63937024076722
 20
17
 30
1
 41
1
 42
1
 43
1
 50
210.00000000000003
210
0
220
0
230
-1
  0
INSERT
  5
657
330
1F
100
AcDbEntity
  8
0
100
AcDbBlockReference
  2
56
 10
300.43937024076718
 20
16.6
 30
1
 41
1
 42
1
 43
1
 50
70
  0
INSERT
  5
659
330
1F
100
AcDbEntity
  8
0
100
AcDbBlockReference
  2
52
 10
310.5590553611508
 20
7.4000000000000066
 30
1
 41
1
 42
1
 43
1
 50
270
  0
INSERT
  5
65B
330
1F
100
AcDbEntity
  8
0
100
AcDbBlockReference
  2
25
 10
-377.95905536115083
 20
9.9999999999999982
 30
1
 41
1
 42
1
 43
1
 50
0
210
0
220
0
230
-1
  0
INSERT
  5
65D
330
1F
100
AcDbEntity
  8
0
100
AcDbBlockReference
  2
46
 10
311.15905536115082
 20
16.2
 30
1
 41
1
 42
1
 43
1
 50
270
  0
INSERT
  5
65F
330
1F
100
AcDbEntity
  8
0
100
AcDbBlockReference
  2
25
 10
377.95905536115083
 20
32.2
 30
1
 41
1
 42
1
 43
1
 50
180
  0
INSERT
  5
661
330
1F
100
AcDbEntity
  8
0
100
AcDbBlockReference
  2
50
 10
403.15905536115076
 20
37.6
 30
1
 41
1
 42
1
 43
1
 50
270
  0
INSERT
  5
663
330
1F
100
AcDbEntity
  8
0
100
AcDbBlockReference
  2
23
 10
-386.15905536115082
 20
12.8
 30
1
 41
1
 42
1
 43
1
 50
270
210
0
220
0
230
-1
  0
INSERT
  5
665
330
1F
100
AcDbEntity
  8
0
100
AcDbBlockReference
  2
50
 10
403.15905536115076
 20
42.800000000000004
 30
1
 41
1
 42
1
 43
1
 50
270
  0
INSERT
  5
667
330
1F
100
AcDbEntity
  8
0
100
AcDbBlockReference
  2
18
 10
-375.35905536115081
 20
24
 30
1
 41
1
 42
1
 43
1
 50
270
210
0
220
0
230
-1
  0
INSERT
  5
669
330
1F
100
AcDbEntity
  8
0
100
AcDbBlockReference
  2
18
 10
-392.15905536115076
 20
33.199999999999996
 30
1
 41
1
 42
1
 43
1
 50
270
210
0
220
0
230
-1
  0
INSERT
  5
66B
330
1F
100
AcDbEntity
  8
0
100
AcDbBlockReference
  2
41
 10
399.15905536115082
 20
10.4
 30
1
 41
1
 42
1
 43
1
 50
135
  0
INSERT
  5
66D
330
1F
100
AcDbEntity
  8
0
100
AcDbBlockReference
  2
29
 10
363.95905536115083
 20
23.2
 30
1
 41
1
 42
1
 43
1
 50
90
  0
INSERT
  5
66F
330
1F
100
AcDbEntity
  8
0
100
AcDbBlockReference
  2
11
 10
-316.95905536115083
 20
45
 30
1
 41
1
 42
1
 43
1
 50
180
210
0
220
0
230
-1
  0
INSERT
  5
671
330
1F
100
AcDbEntity
  8
0
100
AcDbBlockReference
  2
56
 10
-374.75905536115084
 20
23.2
 30
1
 41
1
 42
1
 43
1
 50
260
210
0
220
0
230
-1
  0
INSERT
  5
673
330
1F
100
AcDbEntity
  8
0
100
AcDbBlockReference
  2
40
 10
399.35905536115081
 20
18.200000000000006
 30
1
 41
1
 42
1
 43
1
 50
315
  0
INSERT
  5
675
330
1F
100
AcDbEntity
  8
0
100
AcDbBlockReference
  2
15
 10
-383.75905536115084
 20
16.4
 30
1
 41
1
 42
1
 43
1
 50
180
210
0
220
0
230
-1
  0
INSERT
  5
677
330
1F
100
AcDbEntity
  8
0
100
AcDbBlockReference
  2
44
 10
-502.07874048153445
 20
9.2
 30
1
 41
1
 42
1
 43
1
 50
90
210
0
220
0
230
-1
  0
INSERT
  5
679
330
1F
100
AcDbEntity
  8
0
100
AcDbBlockReference
  2
53
 10
-412.87874048153446
 20
19.799999999999997
 30
1
 41
1
 42
1
 43
1
 50
270
210
0
220
0
230
-1
  0
INSERT
  5
67B
330
1F
100
AcDbEntity
  8
0
100
AcDbBlockReference
  2
46
 10
-463.47874048153443
 20
26.999999999999996
 30
1
 41
1
 42
1
 43
1
 50
270
210
0
220
0
230
-1
  0
ENDSEC
  0
SECTION
  2
OBJECTS
  0
DICTIONARY
  5
C
330
0
100
AcDbDictionary
280
0
281
1
  3
ACAD_COLOR
350
682
  3
ACAD_GROUP
350
D
  3
ACAD_IMAGE_DICT
350
683
  3
ACAD_LAYOUT
350
1A
  3
ACAD_MLEADERSTYLE
350
684
  3
ACAD_MLINESTYLE
350
17
  3
ACAD_PLOTSETTINGS
350
19
  3
ACAD_PLOTSTYLENAME
350
E
  3
ACAD_TABLESTYLE
350
685
  3
ACDB_RECOMPOSE_DATA
350
689
  3
AcDbVariableDictionary
350
68A
  0
DICTIONARY
  5
682
102
{ACAD_REACTORS
330
C
102
}
330
C
100
AcDbDictionary
280
0
281
1
  0
DICTIONARY
  5
D
102
{ACAD_REACTORS
330
C
102
}
330
C
100
AcDbDictionary
280
0
281
1
  0
DICTIONARY
  5
683
102
{ACAD_REACTORS
330
C
102
}
330
C
100
AcDbDictionary
280
0
281
1
  0
DICTIONARY
  5
1A
102
{ACAD_REACTORS
330
C
102
}
330
C
100
AcDbDictionary
280
0
281
1
  3
Layout1
350
1E
  3
Model
350
22
  0
LAYOUT
  5
1E
102
{ACAD_REACTORS
330
1A
102
}
330
1A
100
AcDbPlotSettings
  1

  2
C:\Program Files\AutoCAD 2002\plotters\DWF ePlot (optimized for plotting).pc3
  4

  6

 40
0
 41
0
 42
0
 43
0
 44
0
 45
0
 46
0
 47
0
 48
0
 49
0
140
0
141
0
142
1
143
1
 70
688
 72
1
 73
1
 74
1
  7

 75
16
 76
0
 77
0
 78
0
147
1
148
0
149
0
100
AcDbLayout
  1
Layout1
 70
1
 71
1
 10
0
 20
0
 11
420
 21
297
 12
0
 22
0
 32
0
 14
0
 24
0
 34
0
 15
0
 25
0
 35
0
146
0
 13
0
 23
0
 33
0
 16
1
 26
0
 36
0
 17
0
 27
1
 37
0
 76
0
330
67D
  0
LAYOUT
  5
22
102
{ACAD_REACTORS
330
1A
102
}
330
1A
100
AcDbPlotSettings
  1

  2
C:\Program Files\AutoCAD 2002\plotters\DWF ePlot (optimized for plotting).pc3
  4

  6

 40
0
 41
0
 42
0
 43
0
 44
0
 45
0
 46
0
 47
0
 48
0
 49
0
140
0
141
0
142
1
143
1
 70
1712
 72
1
 73
1
 74
0
  7

 75
0
 76
0
 77
0
 78
0
147
1
148
0
149
0
100
AcDbLayout
  1
Model
 70
1
 71
0
 10
0
 20
0
 11
12
 21
9
 12
0
 22
0
 32
0
 14
0
 24
0
 34
0
 15
0
 25
0
 35
0
146
0
 13
0
 23
0
 33
0
 16
1
 26
0
 36
0
 17
0
 27
1
 37
0
 76
0
330
1F
  0
DICTIONARY
  5
684
102
{ACAD_REACTORS
330
C
102
}
330
C
100
AcDbDictionary
280
0
281
1
  0
DICTIONARY
  5
17
102
{ACAD_REACTORS
330
C
102
}
330
C
100
AcDbDictionary
280
0
281
1
  3
STANDARD
350
18
  0
MLINESTYLE
  5
18
102
{ACAD_REACTORS
330
17
102
}
330
17
100
AcDbMlineStyle
  2
STANDARD
 70
0
  3

 51
90
 52
90
 71
2
 49
0.5
 62
0
  6
ByLayer
 49
-0.5
 62
0
  6
ByLayer
  0
DICTIONARY
  5
19
102
{ACAD_REACTORS
330
C
102
}
330
C
100
AcDbDictionary
280
0
281
1
  0
ACDBDICTIONARYWDFLT
  5
E
102
{ACAD_REACTORS
330
C
102
}
330
C
100
AcDbDictionary
280
0
281
1
  3
Normal
350
F
100
AcDbDictionaryWithDefault
340
F
  0
ACDBPLACEHOLDER
  5
F
102
{ACAD_REACTORS
330
E
102
}
330
E
  0
DICTIONARY
  5
685
102
{ACAD_REACTORS
330
C
102
}
330
C
100
AcDbDictionary
280
0
281
1
  0
XRECORD
  5
689
102
{ACAD_REACTORS
330
C
102
}
330
C
100
AcDbXrecord
280
1
 90
1
330
686
  0
DICTIONARY
  5
68A
102
{ACAD_REACTORS
330
C
102
}
330
C
100
AcDbDictionary
280
0
281
1
  3
DIMASSOC
350
68B
  3
HIDETEXT
350
68C
  0
DICTIONARYVAR
  5
68B
102
{ACAD_REACTORS
330
68A
102
}
330
68A
100
DictionaryVariables
280
0
  1
1
  0
DICTIONARYVAR
  5
68C
102
{ACAD_REACTORS
330
68A
102
}
330
68A
100
DictionaryVariables
280
0
  1
2
  0
DICTIONARY
  5
687
330
686
100
AcDbDictionary
280
0
281
1
  0
ENDSEC
999
Created By CadLib version 4.0.34.49
999
CadLib website: www.woutware.com
  0
EOF
